Log in

One click and you are in

Login with Facebook Login with Google

Why sign up and log in

Guitar Tabs Explorer
Ella Fitzgerald guitar chords for Desafinado

Guitar chords with lyrics

Tuning: Standard (E A D G B E)

Key: A chord diagramFF

Difficulty: Advanced
Verse 1:
 F7M                         G7(b5)
Love is like a never-ending melody
 A chord diagramGm7Gm7        A chord diagramC9C9             Am7-5   D(b9)
Poets have compared it to a symphony
A chord diagramGm7Gm7         A7(b9)           D(#9)           D(b9)
A chord diagramA majorA symphony conducted by the lighting of the moon
 A chord diagramG7G7                       Gb7M           Gb7(b5)
But our song of love is slightly out of tune


Verse 2:
F7M                              G7(b5)
Once your kisses raised me to a fever pitch
A chord diagramGm7Gm7             A chord diagramC9C9            Am7-5   D(b9)
Now the orchestration doesn't seem so rich
 A chord diagramGm7Gm7                 A7(#5)     A chord diagramDm11Dm11 A chord diagramDm7Dm7        A chord diagramE7E7
Seems to me you've changed the tune we used to sing


Bridge:
 A7M      A7(#5)      A chord diagramG13G13          A chord diagramGb7Gb7
Like the bossa nova, love should swing
 A7M          A chord diagramA# diminished A#dim               A chord diagramBm11Bm11      A chord diagramE7E7
We used to harmonize, two souls in perfect time
 A7M            A chord diagramAm9Am9                A chord diagramBm11Bm11            Bb7(b5)
Now the song is diff'rent and the words don't even rhyme
C7M                  A chord diagramC#dimC#dim        A chord diagramDm7Dm7                  A chord diagramG13G13
'Cause you forgot the melody our hearts would always croon
A chord diagramGm7Gm7          A chord diagramEbm6Ebm6  A chord diagramAb9Ab9              A chord diagramGm7Gm7           C(b9)
And so what good's a heart that's slightly out of tune

Verse 3:
 F7M                                     G7(b5)
Tune your heart to mine the way it used to be
 A chord diagramGm7Gm7         A chord diagramC7C7              Am7-5          D(b9)
Join with me in harmony and sing a song of loving
 Bb7M             A chord diagramBbm6Bbm6        A chord diagramAm7Am7           A chord diagramAbdimAbdim
We're bound to get in tune again before too long
  A chord diagramG7G7
There'll be no desafinado
  Gb7M
When your heart belongs to me completely
 A chord diagramG7G7               A chord diagramGm7Gm7           A chord diagramC7C7
So you won't be slightly out of tune
 F7M        C(b9)       F7M
You'll sing along with me.


Outro:
 A chord diagramG7G7
There'll be no desafinado
  Gb7M
When your heart belongs to me completely
 A chord diagramG7G7               A chord diagramGm7Gm7           A chord diagramC7C7
So you won't be slightly out of tune
 F7M        C(b9)       F7M
You'll sing along with me.

 A chord diagramF6F6         C(b9)       F7M
You'll sing along with me.
 A chord diagramF6F6         C(b9)       A chord diagramF11F11
You'll sing along with me.

-----------------------------------------------------
CHORDS:

     F7M    G7(b5)   A chord diagramGm7Gm7      A chord diagramC9C9       Am7-5   D(b9)
e|----------------------------------------------------|
B|---1------2--------3--------3--------4-------4------|
G|---2------4--------3--------3--------5-------5------|
D|---2------3--------3--------2--------5-------4------|
A|----------------------------3----------------5------|
E|---1------3--------3-----------------5--------------|

     A(b9)   D(#9)    A chord diagramG7G7       Gb7M     Gb7(b5) A7(#5)
e|-----------------------------------------------------|
B|----5-------5-------3--------2--------1-------6------|
G|----3-------6-------4--------3--------3-------6------|
D|----5-------4-------3--------3--------2-------5------|
A|----4------------------------------------------------|
E|------------5-------3--------2--------2-------5------|

      A chord diagramDm11Dm11    A chord diagramDm7Dm7     A chord diagramE7E7      A7M       A chord diagramG13G13     A chord diagramGb7Gb7
e|----8-------6---------------------------------------|
B|----8-------6-------5--------5--------5-------2-----|
G|----5-------5-------7--------6--------4-------3-----|
D|----7-------7-------6--------6--------3-------2-----|
A|----5-------5-------7-------------------------------|
E|----5-------5----------------5--------3-------2-----|

      A chord diagramA# diminished A#dim   A chord diagramBm11Bm11    A chord diagramAm9Am9
e|--------------------5-------|
B|----5-------7-------5-------|
G|----6-------7-------5-------|
D|----5-------7-------5-------|
A|--------------------7-------|
E|----6-------7-------7-------|

     Bb7(b5)  C7M     A chord diagramC#dimC#dim
e|---------------------8------|
B|----5-------8--------10-----|
G|----7-------9--------9------|
D|----6-------9--------8------|
A|---------------------8------|
E|----6-------8--------9------|

     A chord diagramEbm6Ebm6     A chord diagramAb9Ab9     C(b9)
e|----------------------------|
B|---6--------4-------2-------|
G|---5--------5-------3-------|
D|---4--------4-------2-------|
A|---6--------6-------3-------|
E|------------4---------------|

     A chord diagramC7C7      Bb7M     A chord diagramBbm6Bbm6     A chord diagramAm7Am7
e|-------------------------------------|
B|---5-------6--------6--------5-------|
G|---3-------7--------6--------5-------|
D|---5-------7--------5--------5-------|
A|---3---------------------------------|
E|-----------6--------6--------5-------|

     A chord diagramAbdimAbdim   A chord diagramF6F6      A chord diagramF11F11
e|----------------------------||
B|---3-------1-------0--------||
G|---4-------2-------2--------||
D|---3-------0-------2--------||
A|----------------------------||
E|---4-------1-------1--------||

-----------------------------------------------

Almost there ...

Sign in to get your own page with links to favourite songs and more. You are just one click away...

Login with Facebook Login with Google