Log in

One click and you are in

Login with Facebook Login with Google

Why sign up and log in

Guitar Tabs Explorer
Fishmans bass tabs for 新しい人 atarashiihito

新しい人 Atarashiihito bass tab by Fishmans

Fishmans bass tabs for 新しい人 atarashiihito

Bass tabs

Tuning: Drop D (D A D G)


Intro:

G|------------------------------|
D|------------------------------|
A|------------------------------|
D|5-4-2-1-0--0--4-7--0-0-0-9-7-9|

Rest of the song just uses this bassline with a few variations.
G|------------------------------------------|
D|------------------------------------------|
A|------------------------------------------|
D|2--5-4-2--2-5-4-2-1-0--0--4-7--0-0-0-9-7-9|

Variation one
G|------------------------------------------|
G|------------------------------------------|
A|------------------------------------------|
D|2--5-4-2--2-5-4-2-1-0--0--4-7--0-0-4-7-4-2|

Sometimes he'll drop one of the notes like this.

G|----------------------------------------|
D|----------------------------------------|
A|----------------------------------------|
D|2--5-4-2--2-5-4-2-1-0--0--4-7--0-0-9-7-9|

There are several other variations throughout the song, and even more in the live versions. Feel free to add
your own.

The chords are just D minor and E major.

Almost there ...

Sign in to get your own page with links to favourite songs and more. You are just one click away...

Login with Facebook Login with Google