Log in

One click and you are in

Login with Facebook Login with Google

Why sign up and log in

Guitar Tabs Explorer
Fig Dish guitar tabs for Rollover please

Guitar tabs with lyrics

Tuning: Standard (E A D G B E)


Intro:

e|-------------------------------------------------|
B|-------------------------------------------------|
G|-------------------------------------------------|
D|-2-x-x-x-x-x-x-x-x-x-x-x-x-x-x-x-2-2-x-x-x-x-x-x-|
A|-2-x-x-x-x-x-x-x-x-x-x-x-x-x-x-x-2-2-x-x-x-x-x-x-|
E|-0-x-x-x-x-x-x-x-x-x-x-x-x-x-x-x-0-0-x-x-x-x-x-x-|

e|-------------------------------------------------|
B|-------------------------------------------------|
G|---4-x-x-x-x-x-x-4-6-x-x-x-x-x-x-6-2-x-x-x-x-x-x-|
D|-2-4-x-x-x-x-x-x-4-6-x-x-x-x-x-x-6-2-x-x-x-x-x-x-|
A|-2-2-x-x-x-x-x-x-2-4-x-x-x-x-x-x-4-0-x-x-x-x-x-x-|
E|-0-----------------------------------------------|

e|-------------------------------------------------|
B|-------------------------------------------------|
G|-----------------4-x-x-x-x-x-x-4-----------------|
D|-2-x-x-x-x-x-x-2-4-x-x-x-x-x-x-4-6-x-x-x-x-x-x-7-|
A|-2-x-x-x-x-x-x-2-2-x-x-x-x-x-x-2-6-x-x-x-x-x-x-7-|
E|-0-x-x-x-x-x-x-0-----------------4-x-x-x-x-x-x-5-|
   ^ 2nd guitar doubles this, let ring

e|-----------------------------------------------------------------------------------|
B|-----------------------------------------------------------------------------------|
G|-9-9-x-11---11-11---9-9-x-11---11-11---9-9-x-11---11-11---13-13-13-14-14-14-14-14\-|
D|-9-9-x-11---11-11---9-9-x-11---11-11---9-9-x-11---11-11---13-13-13-14-14-14-14-14\-|
A|-7-7-x--9----9--9---7-7-x--9----9--9---7-7-x--9----9--9---11-11-11-12-12-12-12-12\-|
E|-----------------------------------------------------------------------------------|

e|-------------------------------------------------------------------------|
B|-------------------------------------------------------------------------|
G|-9-9-x-11---11-11---9-9-x-11----5--5---14-14-14-13---13-11-11-11-13---13-|
D|-9-9-x-11---11-11---9-9-x-11----5--5---14-14-14-13---13-11-11-11-13---13-|
A|-7-7-x--9----9--9---7-7-x--9----7--7---12-12-12-11---11--9--9--9-11---11-|
E|-------------------------------------------------------------------------|


Verse begins, left guitar:

e|-----------------------------------------------------------------------------------|
B|-----------------------------------------------------------------------------------|
G|-9-9-x-11---11-11---9-9-x-11---11-11---9-9-x-11---11-11---13-13-13-14-14-14-14-14\-|
D|-9-9-x-11---11-11---9-9-x-11---11-11---9-9-x-11---11-11---13-13-13-14-14-14-14-14\-|
A|-7-7-x--9----9--9---7-7-x--9----9--9---7-7-x--9----9--9---11-11-11-12-12-12-12-12\-|
E|-----------------------------------------------------------------------------------|

e|-------------------------------------------------------------------------|
B|-------------------------------------------------------------------------|
G|-9-9-x-11---11-11---9-9-x-11----5--5---14-14-14-13---13-11-11-11-13---13-|
D|-9-9-x-11---11-11---9-9-x-11----5--5---14-14-14-13---13-11-11-11-13---13-|
A|-7-7-x--9----9--9---7-7-x--9----7--7---12-12-12-11---11--9--9--9-11---11-|
E|-------------------------------------------------------------------------|


Verse begins, right guitar:

e|------------------------------------------------------|
B|------------------------------------------------------|
G|------------------------------------------------------|
D|-2--2--2-2-2-9--9--9-9-9-11--11--11-11-11-7--7--7-7-7-|
A|-2--2--2-2-2-9--9--9-9-9-11--11--11-11-11-7--7--7-7-7-|
E|-0--0--0-0-0-7--7--7-7-7--9---9---9--9--9-5--5--5-5-5-|

e|-------------------------------------------------|
B|-------------------------------------------------|
G|-------------------------------------------------|
D|-2--2--2-2-2-9--9--9-9-9-6--6--6-6-6-7--7--7-7-7-|
A|-2--2--2-2-2-9--9--9-9-9-6--6--6-6-6-7--7--7-7-7-|
E|-0--0--0-0-0-7--7--7-7-7-4--4--4-4-4-5--5--5-5-5-|


Verse:

e|------------------------------------------------------|
B|------------------------------------------------------|
G|------------------------------------------------------|
D|-2--2--2-2-2-9--9--9-9-9-11--11--11-11-11-7--7--7-7-7-|
A|-2--2--2-2-2-9--9--9-9-9-11--11--11-11-11-7--7--7-7-7-|
E|-0--0--0-0-0-7--7--7-7-7--9---9---9--9--9-5--5--5-5-5-|
Can we not talk about it? Can we get back to bed?

e|-------------------------------------------------|
B|-------------------------------------------------|
G|-------------------------------------------------|
D|-2--2--2-2-2-9--9--9-9-9-6-6---6---6-7---7---7-7-|
A|-2--2--2-2-2-9--9--9-9-9-6-6---6---6-7---7---7-7-|
E|-0--0--0-0-0-7--7--7-7-7-4-4---4---4-5---5---5-5-|
Goddamn those ideas in your head.

e|------------------------------------------------------|
B|------------------------------------------------------|
G|------------------------------------------------------|
D|-2--2--2-2-2-9--9--9-9-9-11--11--11-11-11-7--7--7-7-7-|
A|-2--2--2-2-2-9--9--9-9-9-11--11--11-11-11-7--7--7-7-7-|
E|-0--0--0-0-0-7--7--7-7-7--9---9---9--9--9-5--5--5-5-5-|
Who says it has to happen? You see it under pressure too much.

e|-------------------------------------------------|
B|-------------------------------------------------|
G|-------------------------------------------------|
D|-2--2--2-2-2-9--9--9-9-9-6-6---6---6-7---7---7-7-|
A|-2--2--2-2-2-9--9--9-9-9-6-6---6---6-7---7---7-7-|
E|-0--0--0-0-0-7--7--7-7-7-4-4---4---4-5---5---5-5-|
Can we make our own rules for once?


Chorus:
                 let ring                          let ring
e|---------------0---------------------------------0-------------------|
B|---------------0---------------------------------0-------------------|
G|---------------1---7-7-7-7-7-7-7-7---------------1---7-7-7-7-7-7-7-7-|
D|-5-5-5-5-2---2-2---7-7-7-7-7-7-7-7-5-5-5-5-2---2-2---7-7-7-7-7-7-7-7-|
A|-5-5-5-5-2---2-2---5-5-5-5-5-5-5-5-5-5-5-5-2---2-2---5-5-5-5-5-5-5-5-|
E|-7-7-7-7-0---0-0-------------------7-7-7-7-0---0-0-------------------|
                     Don't talk to me now.             You'll be alright now.

                 let ring                          let ring
e|---------------0---------------------------------0-------------------------|
B|---------------0---------------------------------0-------------------------|
G|---------------1---7-7-7-7-7-7-7-7---------------1---7-7-7-7-7-7---7-7b~~~-|
D|-5-5-5-5-2---2-2---7-7-7-7-7-7-7-7-5-5-5-5-2---2-2---7-7-7-7-7-7---7-7b~~~-|
A|-5-5-5-5-2---2-2---5-5-5-5-5-5-5-5-5-5-5-5-2---2-2---5-5-5-5-5-5---5-5b~~~-|
E|-7-7-7-7-0---0-0-------------------7-7-7-7-0---0-0-------------------------|
                     Please roll over, you'll be okay...

e|---------------------------------------------------------|
B|---------------------------------------------------------|
G|-9---9---9-9-9---9-9-9---9-7-7---7-7-7-7---7-7---7-7-7-7-|
D|-9---9---9-9-9---9-9-9---9-7-7---7-7-7-7---7-7---7-7-7-7-|
A|-7---7---7-7-7---7-7-7---7-5-5---5-5-5-5---5-5---5-5-5-5-|
E|---------------------------------------------------------|
   Okay                      Okay

e|---------------------------------------------------------|
B|---------------------------------------------------------|
G|-9---9---9-9-9---9-9-9---9-7-7---7-7-7-7---7-7---7-7-7-7-|
D|-9---9---9-9-9---9-9-9---9-7-7---7-7-7-7---7-7---7-7-7-7-|
A|-7---7---7-7-7---7-7-7---7-5-5---5-5-5-5---5-5---5-5-5-5-|
E|---------------------------------------------------------|
   Okay                      You're okay

e|---------------------------------------------------------|
B|---------------------------------------------------------|
G|-9---9---9-9-9---9-9-9---9-7-7---7-7-7-7---7-7---7-7-7-7-|
D|-9---9---9-9-9---9-9-9---9-7-7---7-7-7-7---7-7---7-7-7-7-|
A|-7---7---7-7-7---7-7-7---7-5-5---5-5-5-5---5-5---5-5-5-5-|
E|---------------------------------------------------------|
   Okay                      Okay
                                              let ring
e|--------------------------------------------0--------|
B|--------------------------------------------0--------|
G|-6--6--6-6-6-7---7-7--7-7-7-7-2---2-2-2--2--2-2--2-2-|
D|-6--6--6-6-6-7---7-7--7-7-7-7-2---2-2-2--2--2-2--2-2-|
A|-4--4--4-4-4-5---5-5--5-5-5-5-0---0-0-0--0--0-0--0-0-|
E|-----------------------------------------------------|


Post-chorus, left guitar:

e|-----------------------------------------------------------------------------------|
B|-----------------------------------------------------------------------------------|
G|-9-9-x-11---11-11---9-9-x-11---11-11---9-9-x-11---11-11---13-13-13-14-14-14-14-14\-|
D|-9-9-x-11---11-11---9-9-x-11---11-11---9-9-x-11---11-11---13-13-13-14-14-14-14-14\-|
A|-7-7-x--9----9--9---7-7-x--9----9--9---7-7-x--9----9--9---11-11-11-12-12-12-12-12\-|
E|-----------------------------------------------------------------------------------|

e|-------------------------------------------------------------------------|
B|-------------------------------------------------------------------------|
G|-9-9-x-11---11-11---9-9-x-11----5--5---14-14-14-13---13-11-11-11-13---13-|
D|-9-9-x-11---11-11---9-9-x-11----5--5---14-14-14-13---13-11-11-11-13---13-|
A|-7-7-x--9----9--9---7-7-x--9----7--7---12-12-12-11---11--9--9--9-11---11-|
E|-------------------------------------------------------------------------|


Post-chorus, right guitar:

e|---|
B|---|
G|---|
D|-2-|
A|-2-|
E|-0-|
   let ring for a long time


Verse:

e|------------------------------------------------------|
B|------------------------------------------------------|
G|------------------------------------------------------|
D|-2--2--2-2-2-9--9--9-9-9-11--11--11-11-11-7--7--7-7-7-|
A|-2--2--2-2-2-9--9--9-9-9-11--11--11-11-11-7--7--7-7-7-|
E|-0--0--0-0-0-7--7--7-7-7--9---9---9--9--9-5--5--5-5-5-|
Looks like you've got your demons, looks like your head's a mess.

e|-------------------------------------------------|
B|-------------------------------------------------|
G|-------------------------------------------------|
D|-2--2--2-2-2-9--9--9-9-9-6-6---6---6-7---7---7-7-|
A|-2--2--2-2-2-9--9--9-9-9-6-6---6---6-7---7---7-7-|
E|-0--0--0-0-0-7--7--7-7-7-4-4---4---4-5---5---5-5-|

Break down yeah do what you do best.

e|------------------------------------------------------|
B|------------------------------------------------------|
G|------------------------------------------------------|
D|-2--2--2-2-2-9--9--9-9-9-11--11--11-11-11-7--7--7-7-7-|
A|-2--2--2-2-2-9--9--9-9-9-11--11--11-11-11-7--7--7-7-7-|
E|-0--0--0-0-0-7--7--7-7-7--9---9---9--9--9-5--5--5-5-5-|
Clock radio's green across your face and light don't cross the wall

e|-------------------------------------------------|
B|-------------------------------------------------|
G|-------------------------------------------------|
D|-2--2--2-2-2-9--9--9-9-9-6-6---6---6-7---7---7-7-|
A|-2--2--2-2-2-9--9--9-9-9-6-6---6---6-7---7---7-7-|
E|-0--0--0-0-0-7--7--7-7-7-4-4---4---4-5---5---5-5-|
Three hours isn't sleep at all.


Chorus:

                 let ring                          let ring
e|---------------0---------------------------------0-------------------|
B|---------------0---------------------------------0-------------------|
G|---------------1---7-7-7-7-7-7-7-7---------------1---7-7-7-7-7-7-7-7-|
D|-5-5-5-5-2---2-2---7-7-7-7-7-7-7-7-5-5-5-5-2---2-2---7-7-7-7-7-7-7-7-|
A|-5-5-5-5-2---2-2---5-5-5-5-5-5-5-5-5-5-5-5-2---2-2---5-5-5-5-5-5-5-5-|
E|-7-7-7-7-0---0-0-------------------7-7-7-7-0---0-0-------------------|
                     Don't talk to me now.             It'll be alright now.

                 let ring                          let ring
e|---------------0---------------------------------0-------------------------|
B|---------------0---------------------------------0-------------------------|
G|---------------1---7-7-7-7-7-7-7-7---------------1---7-7-7-7-7-7---7-7b~~~-|
D|-5-5-5-5-2---2-2---7-7-7-7-7-7-7-7-5-5-5-5-2---2-2---7-7-7-7-7-7---7-7b~~~-|
A|-5-5-5-5-2---2-2---5-5-5-5-5-5-5-5-5-5-5-5-2---2-2---5-5-5-5-5-5---5-5b~~~-|
E|-7-7-7-7-0---0-0-------------------7-7-7-7-0---0-0-------------------------|
                     Please roll over, you'll be okay...

e|---------------------------------------------------------|
B|---------------------------------------------------------|
G|-9---9---9-9-9---9-9-9---9-7-7---7-7-7-7---7-7---7-7-7-7-|
D|-9---9---9-9-9---9-9-9---9-7-7---7-7-7-7---7-7---7-7-7-7-|
A|-7---7---7-7-7---7-7-7---7-5-5---5-5-5-5---5-5---5-5-5-5-|
E|---------------------------------------------------------|
   Okay                      Okay

e|---------------------------------------------------------|
B|---------------------------------------------------------|
G|-9---9---9-9-9---9-9-9---9-7-7---7-7-7-7---7-7---7-7-7-7-|
D|-9---9---9-9-9---9-9-9---9-7-7---7-7-7-7---7-7---7-7-7-7-|
A|-7---7---7-7-7---7-7-7---7-5-5---5-5-5-5---5-5---5-5-5-5-|
E|---------------------------------------------------------|
   Okay                      You're okay

e|---------------------------------------------------------|
B|---------------------------------------------------------|
G|-9---9---9-9-9---9-9-9---9-7-7---7-7-7-7---7-7---7-7-7-7-|
D|-9---9---9-9-9---9-9-9---9-7-7---7-7-7-7---7-7---7-7-7-7-|
A|-7---7---7-7-7---7-7-7---7-5-5---5-5-5-5---5-5---5-5-5-5-|
E|---------------------------------------------------------|
   Okay                      Okay
                                              let ring
e|--------------------------------------------0--------|
B|--------------------------------------------0--------|
G|-6--6--6-6-6-7---7-7--7-7-7-7-2---2-2-2--2--2-2--2-2-|
D|-6--6--6-6-6-7---7-7--7-7-7-7-2---2-2-2--2--2-2--2-2-|
A|-4--4--4-4-4-5---5-5--5-5-5-5-0---0-0-0--0--0-0--0-0-|
E|-----------------------------------------------------|

Key change - left guitar:

e|-----------------------------------------------------------------------------------------------|
B|-----------------------------------------------------------------------------------------------|
G|-10-10---x-12---12-12---10-10---x-12---12-12---10-10---x-12---12-12---14-14-14-15-15-15-15-15\-|
D|-10-10---x-12---12-12---10-10---x-12---12-12---10-10---x-12---12-12---14-14-14-15-15-15-15-15\-|
A|--8--8---x-10---10-10----8--8---x-10---10-10----8--8---x-10---10-10---12-12-12-13-13-13-13-13\-|
E|-----------------------------------------------------------------------------------------------|

e|-------------------------------------------------------------------------------|
B|-------------------------------------------------------------------------------|
G|-10-10---x-12---12-12---10-10---x-12---8-8---13-13-13-12---12-10-10-10-12---12-|
D|-10-10---x-12---12-12---10-10---x-12---8-8---13-13-13-12---12-10-10-10-12---12-|
A|--8--8---x-10---10-10----8--8---x-10---6-6---11-11-11-10---10--8--8--8-10---10-|
E|-------------------------------------------------------------------------------|

[Key change - right guitar)

e|----|
B|----|
G|-10-|
D|-10-|
A|--8-|
E|----|
    let ring for a long time


Bridge:

e|-----------------------------------------------------------|
B|-----------------------------------------------------------|
G|-----------------------------------------------------------|
D|-3--3--3-3-3-10--10--10-10-10-12--12--12-12-12-8--8--8-8-8-|
A|-3--3--3-3-3-10--10--10-10-10-12--12--12-12-12-8--8--8-8-8-|
E|-1--1--1-1-1--8---8--8--8---8-10--10--10-10-10-6--6--6-6-6-|
   Woah, woah...

e|------------------------------------------------------|
B|------------------------------------------------------|
G|------------------------------------------------------|
D|-3--3--3-3-3-10--10--10-10-10-7-7---7---7-8---8---8-8-|
A|-3--3--3-3-3-10--10--10-10-10-7-7---7---7-8---8---8-8-|
E|-1--1--1-1-1--8---8---8--8--8-5-5---5---5-6---6---6-6-|
   Woah, woah


Outro:

e|--------------------------------------------------------------------|
B|--------------------------------------------------------------------|
G|-3---3--3-3-3-3-10---10--10-10-10-10-8---8--8-8-8-8-8-8-8-8-8-8-8-8-|
D|-3---3--3-3-3-3-10---10--10-10-10-10-8---8--8-8-8-8-8-8-8-8-8-8-8-8-|
A|-1---1--1-1-1-1--8----8---8--8--8--8-6---6--6-6-6-6-6-6-6-6-6-6-6-6-|
E|--------------------------------------------------------------------|
                                              Don't talk to me now.

e|--------------------------------------------------------------------|
B|--------------------------------------------------------------------|
G|-3---3--3-3-3-3-10---10--10-10-10-10-8---8--8-8-8-8-8-8-8-8-8-8-8-8-|
D|-3---3--3-3-3-3-10---10--10-10-10-10-8---8--8-8-8-8-8-8-8-8-8-8-8-8-|
A|-1---1--1-1-1-1--8----8---8--8--8--8-6---6--6-6-6-6-6-6-6-6-6-6-6-6-|
E|--------------------------------------------------------------------|
                                              It'll be alright now.

e|--------------------------------------------------------------------|
B|--------------------------------------------------------------------|
G|-3---3--3-3-3-3-10---10--10-10-10-10-8---8--8-8-8-8-8-8-8-8-8-8-8-8-|
D|-3---3--3-3-3-3-10---10--10-10-10-10-8---8--8-8-8-8-8-8-8-8-8-8-8-8-|
A|-1---1--1-1-1-1--8----8---8--8--8--8-6---6--6-6-6-6-6-6-6-6-6-6-6-6-|
E|--------------------------------------------------------------------|
                                              Please roll over,

e|--------------------------------------------------------------------|
B|--------------------------------------------------------------------|
G|-3---3--3-3-3-3-10---10--10-10-10-10-8---8--8-8-8-8-8-8-8-8-8-8-8-8-|
D|-3---3--3-3-3-3-10---10--10-10-10-10-8---8--8-8-8-8-8-8-8-8-8-8-8-8-|
A|-1---1--1-1-1-1--8----8---8--8--8--8-6---6--6-6-6-6-6-6-6-6-6-6-6-6-|
E|--------------------------------------------------------------------|
           You'll be okay...           (Don't talk to me now)


e|--------------------------------------------------------------------|
B|--------------------------------------------------------------------|
G|-3---3--3-3-3-3-10---10--10-10-10-10-8---8--8-8-8-8-8-8-8-8-8-8-8-8-|
D|-3---3--3-3-3-3-10---10--10-10-10-10-8---8--8-8-8-8-8-8-8-8-8-8-8-8-|
A|-1---1--1-1-1-1--8----8---8--8--8--8-6---6--6-6-6-6-6-6-6-6-6-6-6-6-|
E|--------------------------------------------------------------------|
           You'll be okay...           (Don't talk to me now)

e|--------------------------------------------------------------------|
B|--------------------------------------------------------------------|
G|-3---3--3-3-3-3-10---10--10-10-10-10-8---8--8-8-8-8-8-8-8-8-8-8-8-8-|
D|-3---3--3-3-3-3-10---10--10-10-10-10-8---8--8-8-8-8-8-8-8-8-8-8-8-8-|
A|-1---1--1-1-1-1--8----8---8--8--8--8-6---6--6-6-6-6-6-6-6-6-6-6-6-6-|
E|--------------------------------------------------------------------|
           You'll be okay...

e|---|
B|---|
G|-3-|
D|-3-|
A|-1-|
E|---|
   let ring

************************************

| x   Mute note
| \   slide down
| b   Bend
| ~   vibrato

************************************

Almost there ...

Sign in to get your own page with links to favourite songs and more. You are just one click away...

Login with Facebook Login with Google