Log in

One click and you are in

Login with Facebook Login with Google

Why sign up and log in

Guitar Tabs Explorer
Fifth Harmony bass tabs for One wish

Bass tabs

One Wish - Fifth Harmony


Tuning: Standard (EADG)

Only bass on choruses, bridges and outro
Chorus 1 x2
G|---------------------------------------------------------------------------|
D|---------------------------------------------------------------------------|
A|3---------------3---------------3---------------7-7---5-5------------------|
E|------3---------------3---------------3------------------------------------|


Chorus 2 x2
G|---------------------------------------------------------------------------|
D|---------------------------------------------------------------------------|
A|3---------------3---------------3---------------7-7---5-5------------------|
E|------3---------------3---------------3------------------------------------|


Bridge x2
G|---------------------------------------------------------------------------|
D|---------------------------------------------------------------------------|
A|3---------------3---------------3---------------7-7---5-5------------------|
E|------3---------------3---------------3------------------------------------|


Chorus 3 x2
G|---------------------------------------------------------------------------|
D|---------------------------------------------------------------------------|
A|3---------------3---------------3---------------7-7---5-5------------------|
E|------3---------------3---------------3------------------------------------|


Bridge 2 x2
G|---------------------------------------------------------------------------|
D|---------------------------------------------------------------------------|
A|3---------------3---------------3---------------7-7---5-5------------------|
E|------3---------------3---------------3------------------------------------|


Outro x2
G|---------------------------------------------------------------------------|
D|---------------------------------------------------------------------------|
A|3---------------3---------------3---------------7-7---5-5------------------|
E|------3---------------3---------------3------------------------------------|


| / slide up
| \ slide down
| h hammer-on
| p pull-off
| ~ vibrato
| + harmonic
| x Mute note

Almost there ...

Sign in to get your own page with links to favourite songs and more. You are just one click away...

Login with Facebook Login with Google