Log in

One click and you are in

Login with Facebook Login with Google

Why sign up and log in

Guitar Tabs Explorer
Fifth Harmony bass tabs for Miss movin on

Bass tabs

Miss Movin' On - Fifth Harmony


Tuning: E A D G

Intro 0:03


G|-----------------------------------------------------------------|
D|-----------------------------------------------------------------|
A|---------------------------------4-4-4-4-4-4-4-4-4-4-4-4-4-4-4-4-|
E|-2-2-2-2-2-2-2-2-2-2-2-2-2-2-2-2---------------------------------|
                                   x2
G|-----------------------------------------------------------------|
D|-----------------------------------------------------------------|
A|-6-6-6-6-6-6-6-6-6-6-6-6-6-6-6-6-2-2-2-2-2-2-2-2-2-2-2-2-2-2-2-2-|
E|-----------------------------------------------------------------|




Chorus 0:28

                        x3
G|------------------------------------------------|-----------------------------------------------|
D|------------------------------------------------|-----------------------------------------------|
A|-------------4-(ring)-----6-(ring)-----2-(ring)-|-------------4-(ring)------6-(ring)----x-x-x-x-|
E|-2-(ring)---------------------------------------|-2-(ring)--------------------------------------|

                                 x2
G|------------------------------------------------------------------|
D|------------------------------------------------------------------|
A|------------------4-4-4-4-4-4-4-4-6-6-6-6-6-6-6-6-2-2-2-2-2-2-2-2-|
E|-2-2-2-2-2-2-2-2--------------------------------------------------|



Verse 1:07


G|-----------------------------------------------------------------|
D|-----------------------------------------------------------------|
A|---------------------------------4-4-4-4-4-4-4-4-4-4-4-4-4-4-4-4-|
E|-2-2-2-2-2-2-2-2-2-2-2-2-2-2-2-2---------------------------------|
                                   x2
G|-----------------------------------------------------------------|
D|-----------------------------------------------------------------|
A|-6-6-6-6-6-6-6-6-6-6-6-6-6-6-6-6-2-2-2-2-2-2-2-2-2-2-2-2-2-2-2-2-|
E|-----------------------------------------------------------------|


No Bass 1:33


Chorus 1:36

                        x3
G|------------------------------------------------|-----------------------------------------------|
D|------------------------------------------------|-----------------------------------------------|
A|-------------4-(ring)-----6-(ring)-----2-(ring)-|-------------4-(ring)------6-(ring)----x-x-x-x-|
E|-2-(ring)---------------------------------------|-2-(ring)--------------------------------------|

                                 x2
G|------------------------------------------------------------------|
D|------------------------------------------------------------------|
A|------------------4-4-4-4-4-4-4-4-6-6-6-6-6-6-6-6-2-2-2-2-2-2-2-2-|
E|-2-2-2-2-2-2-2-2--------------------------------------------------|


Bridge 2:02
                                 x2
G|------------------------------------------------------------------|--------------------------|
D|------------------------------------------------------------------|--------------------------|
A|------------------4-4-4-4-4-4-4-4-6-6-6-6-6-6-6-6-2-2-2-2-2-2-2-2-|-----------------4-(ring)-|
E|-2-2-2-2-2-2-2-2--------------------------------------------------|-2-2-2-2-2-2-2-2----------|


Chorus 2:21

                         x2
G|------------------------------------------------|---------------------------------|
D|------------------------------------------------|---------------------------------|
A|-------------4-(ring)-----6-(ring)-----2-(ring)-|---------4-4-x-x-6-6-x-x-2-2-x-x-|
E|-2-(ring)---------------------------------------|-2-2-x-x-------------------------|


No Bass 2:40


Chorus 2:46

                                 x4
G|------------------------------------------------------------------|
D|------------------------------------------------------------------|
A|------------------4-4-4-4-4-4-4-4-6-6-6-6-6-6-6-6-2-2-2-2-2-2-2-2-|
E|-2-2-2-2-2-2-2-2--------------------------------------------------|


| x Rest note

Other versions of Miss Movin On

Miss Movin on (Ver. 2)Bass tabs

Almost there ...

Sign in to get your own page with links to favourite songs and more. You are just one click away...

Login with Facebook Login with Google