Log in

One click and you are in

Login with Facebook Login with Google

Why sign up and log in

Guitar Tabs Explorer
Fifth Harmony bass tabs for Miss movin on (Ver. 2)

Bass tabs

Miss Movin' On - Fifth Harmony


Tuning: Standard (EADG)

This is the version of the EP "Better Together".
Verse 1 x2
G|---------------------------------------------------------------------------|
D|---------------------------------------------------------------------------|
A|----------------444444444444444466666666666666662222222222222222-----------|
E|2222222222222222-----------------------------------------------------------|


Verse 2 x4 (On the last time, don't play the B5 power chord)
G|----------------6---------------8---------------4--------------------------|
D|4---------------6---------------8---------------4--------------------------|
A|4---------------4---------------6---------------2--------------------------|
E|2--------------------------------------------------------------------------|


Chorus 1 x2 (On the second time, don't play the last 2 on the A string)
G|---------------------------------------------------------------------------|
D|---------------------------------------------------------------------------|
A|----------------4-4-----------4-6-------6-------2-2------------2-----------|
E|2-------2------------------------------------------------------------------|

No bass on verse 3


Verse 4 (Again, don't play the B5 power chord on the last time of the verse)
G|----------------6---------------8---------------4--------------------------|
D|4---------------6---------------8---------------4--------------------------|
A|4---------------4---------------6---------------2--------------------------|
E|2--------------------------------------------------------------------------|

Bridge x2
G|---------------------------------------------------------------------------|
D|---------------------------------------------------------------------------|
A|6---------------4---------------9---------------2--------------------------|
E|---------------------------------------------------------------------------|

G|---------------------------------------------------------------------------|
D|---------------------------------------------------------------------------|
A|---------------------------------------------------------------------------|
E|9\-------------------------------------------------------------------------|


Verse 5 x2
G|-------------6--------8--------4-------------------------------------------|
D|---4-------6----6-6-8----8-8-4----4-4--------------------------------------|
A|-4----4-4-4-4----4-6-6----6-2-2----2---------------------------------------|
E|2-2----2-2-----------------------------------------------------------------|

No bass on verse 6


Chorus 2 x4
G|---------------------------------------------------------------------------|
D|---------------------------------------------------------------------------|
A|----------------4-4-----------4-6-------6-------2-2------------2-----------|
E|2-------2------------------------------------------------------------------|


| / slide up
| \ slide down
| h hammer-on
| p pull-off
| ~ vibrato
| + harmonic
| x Mute note

Other versions of Miss Movin On

Miss movin onBass tabs

Almost there ...

Sign in to get your own page with links to favourite songs and more. You are just one click away...

Login with Facebook Login with Google