Log in

One click and you are in

Login with Facebook Login with Google

Why sign up and log in

Guitar Tabs Explorer
Fifth Harmony bass tabs for Me and my girls

Bass tabs

Fifth Harmony - Me And My Girls


Tuning: Standard (EADG)
Intro (No bass)

Verses 1 and 2
G|---------------------------------------------------------------------------|
D|---------------------------------------------------------------------------|
A|-0--0--0--0--7--7--7--7--5--5--5--5--5--5--5--5----------------------------|
E|---------------------------------------------------------------------------|


Chorus 1. 1st part (no bass)


2nd part x2
G|---------------------------------------------------------------------------|
D|---------------------------------------------------------------------------|
A|0-0-0-0-0-0-0-0-7-7-7-7-7-7-7-7-9-9-9-9-9-9-9-9-5-5-5-5-5-5-5-5------------|
E|---------------------------------------------------------------------------|


3rd part x3
G|---------------------------------------------------------------------------|
D|---------------------------------------------------------------------------|
A|0---------90--------7-----3------------------------------------------------|
E|---------------------------------------------------------------------------|

Verses 3 and 4
G|---------------------------------------------------------------------------|
D|---------------------------------------------------------------------------|
A|-0--0--0--0--7--7--7--7--5--5--5--5--5--5--5--5----------------------------|
E|---------------------------------------------------------------------------|

Chorus 2. 1st part (no bass)


2nd part x2
G|---------------------------------------------------------------------------|
D|---------------------------------------------------------------------------|
A|0-0-0-0-0-0-0-0-7-7-7-7-7-7-7-7-9-9-9-9-9-9-9-9-5-5-5-5-5-5-5-5------------|
E|---------------------------------------------------------------------------|


3rd part x3
G|---------------------------------------------------------------------------|
D|---------------------------------------------------------------------------|
A|0---------90--------7-----3------------------------------------------------|
E|---------------------------------------------------------------------------|


Bridge
G|---------------------------------------------------------------------------|
D|---------------------------------------------------------------------------|
A|0---------97--------5-----3----3----97--------5-----3----3----3----33----33|
E|---------------------------------------------------------------------------|


Chorus 3. 1st part (no bass)


2nd part x2
G|---------------------------------------------------------------------------|
D|---------------------------------------------------------------------------|
A|0-0-0-0-0-0-0-0-7-7-7-7-7-7-7-7-9-9-9-9-9-9-9-9-5-5-5-5-5-5-5-5------------|
E|---------------------------------------------------------------------------|


| / slide up
| \ slide down
| h hammer-on
| p pull-off
| ~ vibrato
| + harmonic
| x Mute note

Almost there ...

Sign in to get your own page with links to favourite songs and more. You are just one click away...

Login with Facebook Login with Google