Log in

One click and you are in

Login with Facebook Login with Google

Why sign up and log in

Guitar Tabs Explorer
Fifth Harmony bass tabs for Leave my heart out of this

Leave My Heart Out Of This bass tab - Fifth Harmony

Fifth Harmony bass tabs for Leave my heart out of this

Bass tabs

Leave My Heart Out Of This - Fifth Harmony


Tuning: Standard (EADG)

Without bass 'till Dinah's part
Verse 2 x2
G|---------------------------------------------------------------------------|
D|---------------------------------------------------------------------------|
A|0/7777777777777777---------------------------------------------------------|
E|------------------4444444422222222-----------------------------------------|


Pre-chorus 1 x2
G|---------------------------------------------------------------------------|
D|---------------------------------------------------------------------------|
A|---------77----------------------------------------------------------------|
E|77777-----------44444---22-------------------------------------------------|


Pre-chorus 2 x2
G|---------------------------------------------------------------------------|
D|---------------------------------------------------------------------------|
A|--------77777777-----------------------------------------------------------|
E|77777777--------4444444422222222-------------------------------------------|


Chorus x2
G|---------------------------------------------------------------------------|
D|9--------------------------------------------------------------------------|
A|9-------77-7---------------------------------------------------------------|
E|7--------------004--4--4-22-2----------------------------------------------|

No bass 'till Lauren's part

Verse 4 x2
G|---------------------------------------------------------------------------|
D|---------------------------------------------------------------------------|
A|0/7777777777777777---------------------------------------------------------|
E|------------------4444444422222222-----------------------------------------|


Pre-chorus 3 x2
G|---------------------------------------------------------------------------|
D|---------------------------------------------------------------------------|
A|---------77----------------------------------------------------------------|
E|77777-----------44444---22-------------------------------------------------|


Pre-chorus 4 x2
G|---------------------------------------------------------------------------|
D|---------------------------------------------------------------------------|
A|--------77777777-----------------------------------------------------------|
E|77777777--------4444444422222222-------------------------------------------|


Chorus x2
G|---------------------------------------------------------------------------|
D|9--------------------------------------------------------------------------|
A|9-------77-7---------------------------------------------------------------|
E|7--------------004--4--4-22-2----------------------------------------------|


Bridge
G|---------------------------------------------------------------------------|
D|---------------------------------------------------------------------------|
A|---------77-7--------------------------------------------------------------|
E|44444-44-------0077777-7-22-2-22-------------------------------------------|


Pre-chorus 5 x2
G|---------------------------------------------------------------------------|
D|---------------------------------------------------------------------------|
A|--------77777777-----------------------------------------------------------|
E|77777777--------4444444422222222-------------------------------------------|


Chorus x2
G|---------------------------------------------------------------------------|
D|9--------------------------------------------------------------------------|
A|9-------77-7---------------------------------------------------------------|
E|7--------------004--4--4-22-2----------------------------------------------|

Play the bridge again
G|---------------------------------------------------------------------------|
D|---------------------------------------------------------------------------|
A|---------77-7--------------------------------------------------------------|
E|44444-44-------0077777-7-22-2-22-------------------------------------------|


Outro x2
G|---------99-9--------------------------------------------------------------|
D|9--9--9----------6--6--6--44-4---------------------------------------------|
A|---------------------------------------------------------------------------|
E|---------------------------------------------------------------------------|

G|---------------------------------------------------------------------------|
D|9---\----------------------------------------------------------------------|
A|---------------------------------------------------------------------------|
E|---------------------------------------------------------------------------|


| / slide up
| \ slide down
| h hammer-on
| p pull-off
| ~ vibrato
| + harmonic
| x Mute note

Almost there ...

Sign in to get your own page with links to favourite songs and more. You are just one click away...

Login with Facebook Login with Google