Log in

One click and you are in

Login with Facebook Login with Google

Why sign up and log in

Guitar Tabs Explorer
Fifth Harmony bass tabs for He like that

Bass tabs

Its just this for the entire song:

G|-------------------------------------|
D|-------------------------------------|
A|-3-3-3--3----------------------------| x3
E|----------5-5-5----1-1-1-------------|

G|-------------------------------------|
D|-------------------------------------|
A|-3-3-3--3----------------------------|
E|----------5-5-5---/13-13-13----------|

I prefer to play this^^ but here's a simpler version:

G|-------------------------------------|
D|-------------------------------------|
A|-3-3-3--3-0-0-0----------------------| x3
E|-------------------1-1-1-------------|

G|-------------------------------------|
D|-------------------------------------|
A|-3-3-3--3-0-0-0----------------------|
E|-------------------/8-8-8------------|

Almost there ...

Sign in to get your own page with links to favourite songs and more. You are just one click away...

Login with Facebook Login with Google