Log in

One click and you are in

Login with Facebook Login with Google

Why sign up and log in

Guitar Tabs Explorer
Fifth Harmony bass tabs for Dont wanna dance alone

Don't Wanna Dance Alone bass tab - Fifth Harmony

Fifth Harmony bass tabs for Dont wanna dance alone

Bass tabs

Tuning: Standard (EADG)


Verse 1 x2
G|---------------------------------------------------------------------------|
D|---------------------------------------------------------------------------|
A|0-0-0---0-0-0-00-0-2-4-4-4---024-4-4-44-4-2-0------------------------------|
E|---------------------------------------------------------------------------|
Pre-chorus x2
G|---------------------------------------------------------------------------|
D|---------------------------------------------------------------------------|
A|2--0----0-0-0-00-0-2-4-4-4---024-4-4-44-4-2-0------------------------------|
E|---------------------------------------------------------------------------|


Chorus 1 x2
G|----------------------------9----------------------------------------------|
D|---------------------------------------------------------------------------|
A|0--0----2-2-2------0/7-7-7-----4-4-4--0--0----2-2-2------0/7-7-7--1-1-2-12\|
E|---------------------------------------------------------------------------|


Verse 2
G|---------------------------------------------------------------------------|
D|---------------------------------------------------------------------------|
A|0-0-0\7-0-0-0-00-0-2-4-4-4---024-4-4-44-4-2-0------------------------------|
E|---------------------------------------------------------------------------|

G|---------------------------------------------------------------------------|
D|---------------------------------------------------------------------------|
A|0-0-0-240-0-0-00-0-2-4-4-4---024-4-4-44-4-2-0------------------------------|
E|---------------------------------------------------------------------------|
(This one x2)
G|---------------------------------------------------------------------------|
D|---------------------------------------------------------------------------|
A|0-0-0\7-0-0-0-00-0-2-4-4-4---024-4-4-44-4-2-0------------------------------|
E|---------------------------------------------------------------------------|

Chorus 2 x2
G|----------------------------9----------------------------------------------|
D|---------------------------------------------------------------------------|
A|0--0----2-2-2------0/7-7-7-----4-4-4--0--0----2-2-2------0/7-7-7--1-1-2-12\|
E|---------------------------------------------------------------------------|


Bridge x4
G|---------------------------------------------------------------------------|
D|----------------------------------------------667777777777777777-----------|
A|0000000000000000222222222222222277777777777777-----------------------------|
E|---------------------------------------------------------------------------|

Final Chorus x6
G|----------------------------9----------------------------------------------|
D|---------------------------------------------------------------------------|
A|0--0----2-2-2------0/7-7-7-----4-4-4--0--0----2-2-2------0/7-7-7--1-1-2-12\|
E|---------------------------------------------------------------------------|


| / slide up
| \ slide down
| h hammer-on
| p pull-off
| ~ vibrato
| + harmonic
| x Mute note

Almost there ...

Sign in to get your own page with links to favourite songs and more. You are just one click away...

Login with Facebook Login with Google