Log in

One click and you are in

Login with Facebook Login with Google

Why sign up and log in

Guitar Tabs Explorer
Fifth Harmony bass tabs for Brave honest beautiful

Brave Honest Beautiful bass tab - Fifth Harmony

Fifth Harmony bass tabs for Brave honest beautiful

Bass tabs

Tuning: Standard (EADG)

No bass untill pre-chorus


Pre-chorus
G|---------------------------------------------------------------------------|
D|---------------------------------------------------------------------------|
A|------------------------------3-3-32-2-2-----------------------------------|
E|5-5-55-5-51-1-11-1-13-3-33-3-3---------------------------------------------|

G|---------------------------------------------------------------------------|
D|---------------------------------------------------------------------------|
A|---------------------------------------------------------------------------|
E|5-5-55-5-51-1-11-1-13-3-33-3-3---------------------------------------------|
Chorus x2
G|---------------------------------------------------------------------------|
D|---------------------------------------------------------------------------|
A|------------------------------3-3-32-2-2-----------------------------------|
E|5-5-55-5-51-1-11-1-13-3-33-3-3---------------------------------------------|

Once again, no bass until pre-chorus


Pre-chorus
G|---------------------------------------------------------------------------|
D|---------------------------------------------------------------------------|
A|------------------------------3-3-32-2-2-----------------------------------|
E|5-5-55-5-51-1-11-1-13-3-33-3-3---------------------------------------------|

G|---------------------------------------------------------------------------|
D|---------------------------------------------------------------------------|
A|---------------------------------------------------------------------------|
E|5-5-55-5-51-1-11-1-13-3-33-3-3---------------------------------------------|

Chorus x2
G|---------------------------------------------------------------------------|
D|---------------------------------------------------------------------------|
A|------------------------------3-3-32-2-2-----------------------------------|
E|5-5-55-5-51-1-11-1-13-3-33-3-3---------------------------------------------|

Meghan's breakdown
G|---------------------------------------------------------------------------|
D|---------------------------------------------------------------------------|
A|---------------------------------------------------------------------------|
E|5------5-5-51------1-1-13------3-3-31------1-1-3---------------------------|

G|---------------------------------------------------------------------------|
D|---------------------------------------------------------------------------|
A|---------------------------------------------------------------------------|
E|5------5-5-51------1-1-13------3-3-3---------------------------------------|


Chorus x2
G|---------------------------------------------------------------------------|
D|---------------------------------------------------------------------------|
A|------------------------------3-3-32-2-2-----------------------------------|
E|5-5-55-5-51-1-11-1-13-3-33-3-3---------------------------------------------|


Outro (no bass)



| / slide up
| \ slide down
| h hammer-on
| p pull-off
| ~ vibrato
| + harmonic
| x Mute note

Almost there ...

Sign in to get your own page with links to favourite songs and more. You are just one click away...

Login with Facebook Login with Google