Log in

One click and you are in

Login with Facebook Login with Google

Why sign up and log in

Guitar Tabs Explorer
Fifth Harmony bass tabs for Better together

Bass tabs

Tuning: Standard (EADG)


This is the version of the EP of the same name.
Little correction made.
Intro
G|---------------------------------------------------------------------------|
D|----------------------3-3-5--5---------------------------------------------|
A|---------5-5-6--6------------------5-5-6--6----8-8-------------------------|
E|6--6-----------------------------------------------------------------------|


Verse 1 x3
G|---------------------------------------------------------------------------|
D|----------------------3-3-5--5---------------------------------------------|
A|---------5-5-6--6------------------5-5-6--6----8-8-------------------------|
E|6--6-----------------------------------------------------------------------|
(Then this)
G|---------------------------------------------------------------------------|
D|----------------------3-3-5--5---------------------------------------------|
A|---------5-5-6--6-------------------5-5-6--8--10--12-----------------------|
E|6--6-----------------------------------------------------------------------|


Chorus x2
G|---------------------------------------------------------------------------|
D|----------------------3-3-5--5---------------------------------------------|
A|---------5-5-6--6-------------------5-5-6--6----8-8------------------------|
E|6--6-----------------------------------------------------------------------|

G|---------------------------------------------------------------------------|
D|----------------------3-3-5--5---------------------------------------------|
A|---------5-5-6--6--8\---------------5-5-6--6----8-8------------------------|
E|6--6-----------------------------------------------------------------------|

Verse 2 x3
G|---------------------------------------------------------------------------|
D|----------------------3-3-5--5---------------------------------------------|
A|---------5-5-6--6------------------5-5-6--6----8-8-------------------------|
E|6--6-----------------------------------------------------------------------|
(Then this)
G|---------------------------------------------------------------------------|
D|----------------------3-3-5--5---------------------------------------------|
A|---------5-5-6--6-------------------5-5-6--8--10--12-----------------------|
E|6--6-----------------------------------------------------------------------|


Chorus x2
G|---------------------------------------------------------------------------|
D|----------------------3-3-5--5---------------------------------------------|
A|---------5-5-6--6-------------------5-5-6--6----8-8------------------------|
E|6--6-----------------------------------------------------------------------|

G|---------------------------------------------------------------------------|
D|----------------------3-3-5--5---------------------------------------------|
A|---------5-5-6--6--8\---------------5-5-6--6----8-8------------------------|
E|6--6-----------------------------------------------------------------------|


Verse 3 x4
G|---------------------------------------------------------------------------|
D|----------------------3-3-5--5---------------------------------------------|
A|---------5-5-6--6------------------5-5-6--6----8-8-------------------------|
E|6--6-----------------------------------------------------------------------|


Bridge x2
G|---------------------------------------------------------------------------|
D|----------------------3-3-5--5---------------------------------------------|
A|---------5-5-6--6------------------5-5-6--6----8-8-------------------------|
E|6--6-----------------------------------------------------------------------|

Final Chorus
G|---------------------------------------------------------------------------|
D|----------------------3-3-5--5---------------------------------------------|
A|---------5-5-6--6-------------------5-5-6--6----8-8------------------------|
E|6--6-----------------------------------------------------------------------|

G|---------------------------------------------------------------------------|
D|----------------------3-3-5--5---------------------------------------------|
A|---------5-5-6--6--8\---------------5-5-6--6----8-8------------------------|
E|6--6------------------------------------------------6----------------------|




| / slide up
| \ slide down
| h hammer-on
| p pull-off
| ~ vibrato
| + harmonic
| x Mute note

Almost there ...

Sign in to get your own page with links to favourite songs and more. You are just one click away...

Login with Facebook Login with Google