Log in

One click and you are in

Login with Facebook Login with Google

Why sign up and log in

Guitar Tabs Explorer
Fee bass tabs for Your love is better than life

Your Love Is Better Than Life bass tab by Fee

Fee bass tabs for Your love is better than life

Bass tabs

-------------------------------------------------------------------------------
               YOUR LOVE IS BETTER THAN LIFE - Fee
-------------------------------------------------------------------------------


Tuning: Standard
Intro
G|---------------------------------------------------------------------------|
D|---------------------------------------------------------------------------|
A|---------66666666----------------------------66666666----------------------|
E|44444444----------66666666-888-3333-44444444----------6666666666666666\----|


Verse 1
G|---------------------------------------------------------------------------|
D|---------------------------------------------------------------------------|
A|-------------------------------------6666666666666666----------------------|
E|18/8888888888888888-4444444444444444------------------6666666666666666-----|


Pre-chorus
G|---------------------------------------------------------------------------|
D|---------------------------------------------------------------------------|
A|---------------------------------------------------------------------------|
E|4-------6-------8-------1-------4-------444-666----------------------------|


Chorus
2x
G|---------------------------------------------------------------------------|
D|---------------------------------------------------------------------------|
A|---------66666666----------------------------66666666----------------------|
E|44444444----------66666666-888-3333-44444444----------6666666666666666-----|

Verse 2
G|---------------------------------------------------------------------------|
D|---------------------------------------------------------------------------|
A|----------------------------------6666666666666666-------------------------|
E|8888888888888888-4444444444444444------------------66666666----------------|


Pre-chorus


Chorus


Bridge
G|---------------------------------------------------------------------------|
D|---------------------------------------------------------------------------|
A|---------------------------------------------------------------------------|
E|4--------------------------------------------------------------------------|

G|---------------------------------------------------------------------------|
D|---------------------------------------------------------------------------|
A|---------------------------------------------------------------------------|
E|4444444444444444-6666666666666666-4444444444444444-6666666666666666--------|

G|---------------------------------------------------------------------------|
D|---------------------------------------------------------------------------|
A|--------6------------------------------------------------------------------|
E|4--------------------------------------------------------------------------|


Chorus
1x


Bridge 2
G|---------------------------------------------------------------------------|
D|---------------------------------------------------------------------------|
A|---------6666-8h10p8-6-----------------------------------------------------|
E|44444444---------------66666666-888-3333-----------------------------------|

G|---------------------------------------------------------------------------|
D|---------------------------------------------------------------------------|
A|---------66666666----------------------------------------------------------|
E|44444444----------66666666/1818181818181818--------------------------------|

G|---------------------------------------------------------------------------|
D|---------------------------------------------------------------------------|
A|1111111111111111-66666666--------------------------------------------------|
E|--------------------------66666666-888-3333--------------------------------|

G|---------------------------------------------------------------------------|
D|---------------------------------------------------------------------------|
A|---------66666666----------------------------------------------------------|
E|44444444----------6666666666666666-----------------------------------------|


Ending
G|---------------------------------------------------------------------------|
D|---------------------------------------------------------------------------|
A|-----------------------6---------------------------------------------------|
E|444-6666-------444-666-----------------------------------------------------|


| / slide up
| \ slide down
| h hammer-on
| p pull-off

Almost there ...

Sign in to get your own page with links to favourite songs and more. You are just one click away...

Login with Facebook Login with Google