Log in

One click and you are in

Login with Facebook Login with Google

Why sign up and log in

Guitar Tabs Explorer
Fear Factory tabs for Flashpoint

Guitar tabs

from both versions of Demanufacture

Tune all strings down 1 full step.


INTRO/CHORUS:
-------------------
-------------------
-------------------	"Damned In Flames"
-------5-------5-5-
-2-2-2-3-2-2-2-3-3-
-0-0-0---0-0-0-----
VERSE:
---------------------
---------------------
---------------------
-------5-5-------5-5-
-2-2-2-3-3-2-2-2-3-3-
-0-0-0-----0-0-0-----
 |PM|      |PM|
I lied     Right...


PRECHORUS
-------------------|---------------------|-------------------|
-------------------|---------------------|-------------------|
-------------------|---------------------|-------------------|
-------------------|---------------------|-------------------|
-5-5-5-5-5-5-5-5-7-|-2-2-2-2-2-2-2-2-3-5-|-2-3-5-3-5-6-5-6-7-|
-3-3-3-3-3-3-3-3-5-|-0-0-0-0-0-0-0-0-1-3-|-0-1-3-1-3-4-3-4-5-|
 |PM------------|    |PM------------|


BRIDGE:  *note: This is off, but it sounds okay...
-------------------------------------------------------
-------------------------------------------------------
-------------------------------------------------------
-5----5-5----5-5----5-2----2-3-4-5----5-5----5-7----7-7
-3----3-2----2-1----1-0----0-1-2-3----3-5----5-5----5-7
-------------------------------------------------------
Lies engulf me...

ORDER:

INTRO

VERSE

CHORUS

VERSE

PRE CHORUS

CHORUS

BRIDGE

PRE CHORUS

CHORUS


that's it... questions/comments welcome... pdixon@alpha.pr1.k12.co.us

--BC_Rich

"I am a thorn in your eye am a thorn in your eye."--Fear Factory

Almost there ...

Sign in to get your own page with links to favourite songs and more. You are just one click away...

Login with Facebook Login with Google