GuitarTabsExplorer icon
GuitarTabsExplorer icon

Log in

Songbook

  • Log in to add and see bookmarks

Last visited songs

    No songs visited yet...

Cars by Fear Factory

Tabs

Song Title: Cars
Artist: Fear Factory
CD:Obsolete
Track #11
Not Origial Artist of song
Issued by: Julia R.

Questions? Comments? Contact [email protected] so I can answer your
requests. This is my first tab---so no criticism please!

Main riff: (ie. intro,chorus,verse,outtro)

    4x     end with playing 2x
E:---------------|------------------|
B:---------------|------------------|
G:---------------|------------------|   Played throughout most of song.
D:---------------|------------------|
A:-5-4-----------|-----3--------3---|
E:-----3--5--5-5-|-2/3---3--2/3---3-|
  Here in my. . . . . . . in cars.
The Solo Part---played only a few times though

   Main ditty        1st ending        2nd ending
E:------------------------|----------------------|----------------------|
B:------------------------|----------------------|----------------------|
G:------------------------|----------------------|----------------------|
D:---0------------0---3-2-|---0------------------|---0----------------0-|
A:-----0--2/3-2-----0-----|------0-2/3-2---------|-----0-2/3-2----0-2---|
E:-3------------3---------|-3-------------3--3-3-|-3------------3-------|


Order of song:
Intro with buzzing
Main riff several times
solo part
main riff
and so on
same thing over and over again
you like?

Other versions of Cars

Alternative guitar chords and tabs for Cars by Fear Factory

VersionType
Cars (Ver. 2)Tabs

[ Privacy | About us ]

Welcome to the guitar community

Why join and log in?
- Get songbook with favourite songs
- Get custom made front page
- Submit chords and tabs
- Submit guitar-cover videos
- Get a lot of thumbs up for your work

Songbook

Last visited songs

Site
Home
Search
Community
Submit chords

Video

No video for this page. Check out how you can submit guitar-cover videos here

Search tabs and chords

Browse by artist

A B C D E F G H I J K L M N O P Q R S T U V W X Y Z #


Menu

Search

Video

Bookmark

Login