Log in

One click and you are in

Login with Facebook Login with Google

Why sign up and log in

Guitar Tabs Explorer
Faydee guitar tabs for Unbreakable

Guitar tabs

Tuning: Standard (E A D G B E)


Intro:

e|--------------------------------------------|
B|--0--3--0-----2--------2-----0--------------|
G|-----------2-----2--2-----2-----------------|
D|--------------------------------------------|  x2
A|--------------------------------------------|
E|--------------------------------------------|
Verse 1:

e|---------------------------------------------------------------------------|
B|--0--2--3--3--3--2--0-----2-----3--3--2--0-----2------3--2--0-----0--------|
G|-----------------------2-----2--------------2-----2------------2-----------|
D|---------------------------------------------------------------------------|
A|---------------------------------------------------------------------------|
E|---------------------------------------------------------------------------|

e|---------------------------------------------------------------------------|
B|--0--2--3--3--3--2--0-----2-----3--3--2--0-----2------3--2--0-----0--------|
G|-----------------------2-----2--------------2-----2------------2-----------|
D|---------------------------------------------------------------------------|
A|---------------------------------------------------------------------------|
E|---------------------------------------------------------------------------|

e|-----0---------------------------------------------------------------------|
B|--0-----0--3--2--3--2--0--2--0--2--0--2--0-----2--0--2--0--2--0-----0------|
G|--------------------------------------------2--------------------2---------|
D|---------------------------------------------------------------------------|
A|---------------------------------------------------------------------------|
E|---------------------------------------------------------------------------|

e|-----0---------------------------------------------------------------------|
B|--0-----0--3--2--3--2--0--2--0--2--0--2--0-----2--0--2--0--2--0-----0------|
G|--------------------------------------------2--------------------2---------|
D|---------------------------------------------------------------------------|
A|---------------------------------------------------------------------------|
E|---------------------------------------------------------------------------|

Pre-Chorus:

e|-----0--2--3--3--3--2--0-----0--2--0--3--3--2--0-----0--2--0--3--3--2--0---|
B|--3-----------------------3-----------------------3------------------------|
G|---------------------------------------------------------------------------|
D|---------------------------------------------------------------------------|
A|---------------------------------------------------------------------------|
E|---------------------------------------------------------------------------|

e|-----0--2--0---------------------------------------------------------------|
B|--3------------------------------------------------------------------------|
G|---------------------------------------------------------------------------|
D|---------------------------------------------------------------------------|
A|---------------------------------------------------------------------------|
E|---------------------------------------------------------------------------|


Chorus:

e|--------0--2--0--2--2--2--2--2--2--0--0--2--2--2--0--0--0--0--0--2--2------|
B|--2--3---------------------------------------------------------------------|
G|---------------------------------------------------------------------------|
D|---------------------------------------------------------------------------|
A|---------------------------------------------------------------------------|
E|---------------------------------------------------------------------------|

e|--------0--2--2--2--2--2--0--0-----0--5--2--2--0--0-----0--0-----0--2--2---|
B|--0--3--------------------------3--------------------3--------3------------|
G|---------------------------------------------------------------------------|
D|---------------------------------------------------------------------------|
A|---------------------------------------------------------------------------|
E|---------------------------------------------------------------------------|

e|--------5--2--0--------5--2--0--------5--2--0--0--0--0--0------------------|
B|--0--3-----------0--3-----------0--3-----------------------2--2------------|
G|---------------------------------------------------------------------------|
D|---------------------------------------------------------------------------|
A|---------------------------------------------------------------------------|
E|---------------------------------------------------------------------------|

e|--------5--2--0--------5--2--0--------5--2--0--0--0--0--0------------------|
B|--0--3-----------0--3-----------0--3-----------------------2--2------------|
G|---------------------------------------------------------------------------|
D|---------------------------------------------------------------------------|
A|---------------------------------------------------------------------------|
E|---------------------------------------------------------------------------|


Verse 2:

e|---------------------------------------------------------------------------|
B|--0--2--3--3--3--2--0-----2-----3--3--2--0-----2------3--2--0-----0--------|
G|-----------------------2-----2--------------2-----2------------2-----------|
D|---------------------------------------------------------------------------|
A|---------------------------------------------------------------------------|
E|---------------------------------------------------------------------------|

e|---------------------------------------------------------------------------|
B|--0--2--3--3--3--2--0-----2-----3--3--2--0-----2------3--2--0-----0--------|
G|-----------------------2-----2--------------2-----2------------2-----------|
D|---------------------------------------------------------------------------|
A|---------------------------------------------------------------------------|
E|---------------------------------------------------------------------------|

e|-----0---------------------------------------------------------------------|
B|--0-----0--3--2--3--2--0--2--0--2--0--2--0-----2--0--2--0--2--0-----0------|
G|--------------------------------------------2--------------------2---------|
D|---------------------------------------------------------------------------|
A|---------------------------------------------------------------------------|
E|---------------------------------------------------------------------------|

e|-----0---------------------------------------------------------------------|
B|--0-----0--3--2--3--2--0--2--0--2--0--2--0-----2--0--2--0--2--0-----0------|
G|--------------------------------------------2--------------------2---------|
D|---------------------------------------------------------------------------|
A|---------------------------------------------------------------------------|
E|---------------------------------------------------------------------------|


Pre-Chorus:

e|-----0--2--3--3--3--2--0-----0--2--0--3--3--2--0-----0--2--0--3--3--2--0---|
B|--3-----------------------3-----------------------3------------------------|
G|---------------------------------------------------------------------------|
D|---------------------------------------------------------------------------|
A|---------------------------------------------------------------------------|
E|---------------------------------------------------------------------------|

e|-----0--2--0---------------------------------------------------------------|
B|--3------------------------------------------------------------------------|
G|---------------------------------------------------------------------------|
D|---------------------------------------------------------------------------|
A|---------------------------------------------------------------------------|
E|---------------------------------------------------------------------------|


Chorus:

e|--------0--2--0--2--2--2--2--2--2--0--0--2--2--2--0--0--0--0--0--2--2------|
B|--2--3---------------------------------------------------------------------|
G|---------------------------------------------------------------------------|
D|---------------------------------------------------------------------------|
A|---------------------------------------------------------------------------|
E|---------------------------------------------------------------------------|

e|--------0--2--2--2--2--2--0--0-----0--5--2--2--0--0-----0--0-----0--2--2---|
B|--0--3--------------------------3--------------------3--------3------------|
G|---------------------------------------------------------------------------|
D|---------------------------------------------------------------------------|
A|---------------------------------------------------------------------------|
E|---------------------------------------------------------------------------|

e|--------5--2--0--------5--2--0--------5--2--0--0--0--0--0------------------|
B|--0--3-----------0--3-----------0--3-----------------------2--2------------|
G|---------------------------------------------------------------------------|
D|---------------------------------------------------------------------------|
A|---------------------------------------------------------------------------|
E|---------------------------------------------------------------------------|

e|--------5--2--0--------5--2--0--------5--2--0--0--0--0--0------------------|
B|--0--3-----------0--3-----------0--3-----------------------2--2------------|
G|---------------------------------------------------------------------------|
D|---------------------------------------------------------------------------|
A|---------------------------------------------------------------------------|
E|---------------------------------------------------------------------------|


Bridge:

e|--------------------------------------------|
B|--0--3--0-----2--------2-----0--------------|
G|-----------2-----2--2-----2-----------------|
D|--------------------------------------------|  x2
A|--------------------------------------------|
E|--------------------------------------------|


Chorus:

e|--------0--2--0--2--2--2--2--2--2--0--0--2--2--2--0--0--0--0--0--2--2------|
B|--2--3---------------------------------------------------------------------|
G|---------------------------------------------------------------------------|
D|---------------------------------------------------------------------------|
A|---------------------------------------------------------------------------|
E|---------------------------------------------------------------------------|

e|--------0--2--2--2--2--2--0--0-----0--5--2--2--0--0-----0--0-----0--2--2---|
B|--0--3--------------------------3--------------------3--------3------------|
G|---------------------------------------------------------------------------|
D|---------------------------------------------------------------------------|
A|---------------------------------------------------------------------------|
E|---------------------------------------------------------------------------|

e|--------5--2--0--------5--2--0--------5--2--0--0--0--0--0------------------|
B|--0--3-----------0--3-----------0--3-----------------------2--2------------|
G|---------------------------------------------------------------------------|
D|---------------------------------------------------------------------------|
A|---------------------------------------------------------------------------|
E|---------------------------------------------------------------------------|

e|--------5--2--0--------5--2--0--------5--2--0--0--0--0--0------------------|
B|--0--3-----------0--3-----------0--3-----------------------2--2------------|
G|---------------------------------------------------------------------------|
D|---------------------------------------------------------------------------|
A|---------------------------------------------------------------------------|
E|---------------------------------------------------------------------------|

Other versions of Unbreakable

UnbreakableChords

↓ Add and view comments below ↓

What do you think about this song and these tabs?

Add your comments, questions, rant or a thumbs up below.

Almost there ...

Sign in to get your own page with links to favourite songs and more. You are just one click away...

Login with Facebook Login with Google