Log in

One click and you are in

Login with Facebook Login with Google

Why sign up and log in

Guitar Tabs Explorer
Faster Pussycat bass tabs for Babylon

Bass tabs

------------------------------------------------------------------------------
               Babylon - Faster Pussycat
------------------------------------------------------------------------------

From the Album: Faster Pussycat (1987)
Tuning: Standard


Intro (0:09)
G|-----------------------------------------|
D|o---------------------------------------o|
A|o---------------------------------------o|
E|---3-2-1-0-3-5-5-7-7-3-5-5-3-0---0-0-----|


Verse
G|---------------------------------------------------------------------------|
D|---------------------------------------------------------------------------|
A|---------------------------------------------------------------------------|
E|---3-2-1-0--------------------------------0-3-5-5-7-7-3-5-5-3-0------------|

G|---------------------------------------------------------------------------|
D|---------------------------------------------------------------------------|
A|---------------------------------------------------------------------------|
E|---3-2-1-0-3-5-5-7-7-3-5-5-3-0------------0-3-5-5-7-7-3-5-5-3-0------------|

G|-----------------------------------------|
D|-----------------------------------------|
A|-----------------------------------------|
E|---3-2-1-0-3-5-5-7-7-3-5-5-3-0---0-0-----|


Chorus
G|-----------------------------------------------------------|
D|---------------5-4-----------------------------------------|
A|---2-3-4-5-5-5-----2-2-2-2-2-2-2-2-------------------------|
E|-----------------------------------0--3--0---0-0-3---0-----|

G|--------------------------------------|
D|---------------5-4--------------------|
A|---2-3-4-5-5-5-----2-2-2-2-2-2-2-2----|
E|--------------------------------------|

G|----------------------------------------------------------------------|
D|----------------------------------------------------------------------|
A|----------------------------------------------------------------------|
E|---0-3-5-5-7-7-3-5-5-3-0---0-0---3-2-1-0-3-5-5-7-7-3-5-5-3-0---0-0----|

Verse
G|---------------------------------------------------------------------------|
D|---------------------------------------------------------------------------|
A|---------------------------------------------------------------------------|
E|---3-2-1-0--------------------------------0-3-5-5-7-7-3-5-5-3-0------------|

G|---------------------------------------------------------------------------|
D|---------------------------------------------------------------------------|
A|---------------------------------------------------------------------------|
E|---3-2-1-0-3-5-5-7-7-3-5-5-3-0------------0-3-5-5-7-7-3-5-5-3-0------------|

G|-----------------------------------------|
D|-----------------------------------------|
A|-----------------------------------------|
E|---3-2-1-0-3-5-5-7-7-3-5-5-3-0---0-0-----|


Chorus
G|-----------------------------------------------------------|
D|---------------5-4-----------------------------------------|
A|---2-3-4-5-5-5-----2-2-2-2-2-2-2-2-------------------------|
E|-----------------------------------0--3--0---0-0-3---0-----|

G|--------------------------------------|
D|---------------5-4--------------------|
A|---2-3-4-5-5-5-----2-2-2-2-2-2-2-2----|
E|--------------------------------------|

Guitar Solo
G|------------------------------------------------------------------7h9-----------|
D|----------------------------------------------------------------------7h9-------|
A|--------------------------------------------------------------------------7h9p7-|
E|--0-3-5-5-7-7-3-5-5-3-0---0-0---3-2-1-0-3-5-5-7-7-3-5-5-3-0---0-0---------------|

G|----------------------------------------------------------------------|
D|----------------------------------------------------------------------|
A|----------------------------------------------------------------------|
E|---0-3-5-5-7-7-3-5-5-3-0---0-0---3-2-1-0-3-5-5-7-7-3-5-5-3-0---0-0----|


Verse
G|---------------------------------------------------------------------------|
D|---------------------------------------------------------------------------|
A|---------------------------------------------------------------------------|
E|---3-2-1-0--------------------------------0-3-5-5-7-7-3-5-5-3-0------------|

G|---------------------------------------------------------------------------|
D|---------------------------------------------------------------------------|
A|---------------------------------------------------------------------------|
E|---3-2-1-0-3-5-5-7-7-3-5-5-3-0------------0-3-5-5-7-7-3-5-5-3-0------------|

G|-----------------------------------------|
D|-----------------------------------------|
A|-----------------------------------------|
E|---3-2-1-0-3-5-5-7-7-3-5-5-3-0---0-0-----|


Chorus
G|-----------------------------------------------------------|
D|---------------5-4-----------------------------------------|
A|---2-3-4-5-5-5-----2-2-2-2-2-2-2-2-------------------------|
E|-----------------------------------0--3--0---0-0-3---0-----|

G|--------------------------------------|
D|---------------5-4--------------------|
A|---2-3-4-5-5-5-----2-2-2-2-2-2-2-2----|
E|--------------------------------------|

G|----------------------------------------------------------------------------|
D|-------------------------------4-4-----------------------------------4-4----|
A|----------------------------------------------------------------------------|
E|---0-3-5-5-7-7-3-5-5-3-0---0-0-----3-2-1-0-3-5-5-7-7-3-5-5-3-0---0-0--------|

G|----------------------------------------------------------------------|
D|-------------------------------4--------------------------------------|
A|----------------------------------------------------------------------|
E|---0-3-5-5-7-7-3-5-5-3-0---0-0---3-2-1-0-3-5-5-7-7-3-5-5-3-0---0-0----|

Almost there ...

Sign in to get your own page with links to favourite songs and more. You are just one click away...

Login with Facebook Login with Google