Log in

One click and you are in

Login with Facebook Login with Google

Why sign up and log in

Guitar Tabs Explorer
Farin Urlaub Racing Team tabs for Atem

Solo tabs

Tuning: A chord diagramEb MajorEb

Playing it this way is easy, maybe some guitarists take other frets, but it works,
and all notes are correct
 |       |       |       |        |       |       |       |
|--------------------------------|------------------------4---5---|
|--------------------------------|----------------5---7-----------|
|--------------------------------|----4---6---7-------------------|
|------------------------4---6---|7-------------------------------|
|------------4---5---7-----------|--------------------------------|
|5---5---7-----------------------|--------------------------------|

 |       |       |       |        |       |       |       |
|5-------------------------------|5-------------------------------|
|--------------------------------|--------6---5-------------------|
|--------------------------------|--------------------7-----------|
|--------------------------------|--------------------------------|
|--------------------------------|--------------------------------|
|--------------------------------|--------------------------------|

 |       |       |       |        |       |       |       |
|--------------------------------|--------------------------------|
|----------------5---------------|--------------------------------|
|6-------------------------------|4---------------6---------------|
|--------------------------------|--------------------------------|
|--------------------------------|--------------------------------|
|--------------------------------|--------------------------------|

 |       |       |       |        |       |       |       |
|--------------------------------|--------------------------------|
|--------------------------------|--------------------------------|
|--------------------------------|--------------------------------|
|4---7-----------------------9---|7-------7---7-------7---7---7---|
|--------------------------------|--------5---5-------5---5---5---|
|--------------------------------|--------------------------------|

 |       |       |       |        |       |       |       |
|----------------9---------------|9-------7-----------7-------7/--|
|--------------------------------|------------10------------------|
|9-------------------------------|--------------------------------|
|7-------------------------------|--------------------------------|
|--------------------------------|--------------------------------|
|--------------------------------|--------------------------------|

 |       |       |       |        |       |       |       |
|9---------------9---------------|9-------------------------------|
|--------------------------------|--------12--12------10------10--|
|--------------------------------|--------------------------------|
|--------------------------------|--------------------------------|
|--------------------------------|--------------------------------|
|--------------------------------|--------------------------------|

 |       |       |       |        |       |       |       |
|----------------12----------12--|12------12--12------------------|
|----------------10----------10--|--------10--10----------10/-12--|
|--------------------------------|--------------------------------|
|--------------------------------|--------------------------------|
|--------12--12------12----------|--------------------------------|
|--------------------------------|--------------------------------|

 |       |       |       |        |       |       |       |
|--------------------------------|--------------------------------|
|12-------------------------/14--|----12--------------12----------|
|--------------------------------|------------14------------------|
|--------------------------------|--------------------------------|
|--------------------------------|--------------------------------|
|--------------------------------|--------------------------------|

 |       |       |       |        |       |       |       |
|10------------------------------|--------------------------------|
|--------12---------------------/|14------12--------------12------|
|--------------------------------|------------14------14------14--|
|--------------------------------|--------------------------------|
|--------------------------------|--------------------------------|
|--------------------------------|--------------------------------|

 |       |       |       |        |       |       |       |
|--------------------------------|10----------10------------------|
|--------------------------------|--------10----------10------10--|
|--------------------------------|--------------------------------|
|--------------------------------|--------------------------------|
|--------------------------------|--------------------------------|
|--------------------------------|--------------------------------|

 |       |       |       |
|--------------------------------|
|--------10------10-----/14------|
|----9h11----9h11----------------|
|--------------------------------|
|--------------------------------|
|--------------------------------|


 |         |         |        |
|14h17p14------14h17p14---------------|
|----------17-------------14/-15/-14--|
|-------------------------------------|
|-------------------------------------|
|-------------------------------------|
|-------------------------------------|

Hammerings and pull offs in last two measures are 16th

Have fun!

Almost there ...

Sign in to get your own page with links to favourite songs and more. You are just one click away...

Login with Facebook Login with Google