Log in

One click and you are in

Login with Facebook Login with Google

Why sign up and log in

Guitar Tabs Explorer
The Fall Of Troy bass tabs for Walk of fame

Bass tabs

Walk Of Fame - The Fall Of Troy
-------------------------------------------------------------------------------

 Tabbed by:dvanwyk

 Tuning:Standard

 Verse x2
G|---------------------------------------------------------------7-----9-----|
D|77----77----55/77----77----------------7-----------------7-0h5---0h7---7---|
A|---------------------------55----55------7-55----55--5h7-------------------|
E|---------------------------------------------------------------------------|

 Chorus x2
G|-----------------------------------------------------------|
D|---/99-9------------------------9---9---------7---7--------|
A|---------10-10-3-33-3----7-77-7---7----5-55-5---5----------|
E|55---------------------------------------------------------|

 Verse
 Chorus

 Pause

 Bridge x2 (1.42)
G|---------14---------------------------------14-12~--16h17-16h17-16----|
D|7~--9-10----14~--14h15-14h15-15p14--7~-9-10---------------------------|
A|----------------------------------------------------------------------|
E|----------------------------------------------------------------------|

 x4
G|--------------------------------------------------------------|
D|-----------------------------------------9~--9h10p9-7/9/7-----|
A|--------10-7~--7h8p7-5/7/5------------10------------------10--|
E|5~--7-8--------------------8--5~--7-8-------------------------|

 x2
G|-------------------------------------------------------------------------|
D|----------9----------------------------------------9~--9h10p9-7/9/7------|
A|------------10~--10h12p10-8h10p8-7h8------------10------------------10---|
E|5~--5-7-8-----------------------------5~--5-7-8--------------------------|

 Pause

 x2 (3.10)
G|---------------------------------|
D|---------------------------------|
A|---------------------------------|
E|5---54---43---32--2-3-4----------|

 x2
G|-------------------------------------------------------------|
D|-------------------------------------------------------------|
A|--------------------------------------------------555555-----|
E|555555-444444-333333-444444--555555-444444-333333------------|

G|-----------------------------------------------------------|
D|-----------------------------------------------------------|
A|----------5--------------5---------------5------------5~---|
E|5~---54~----5-4-3~--34~----3-4-5~---54~----5-4-3~--3-------|

|-------------------------------------|
D|------------------------------------|
A|----------5--------------5----------|
E|5~---54~----5-4-3~--34~----3-4------|

G|-----------------------------------|
D|-----------------------------------|
A|---------------------555555--------|
E|555555-444444-333333---------------|

 x2
G|-------------------------------------------------------------------------------------|
D|-------------------------------------7-5-------------5------/10-7--------------------|
A|------5-7------8-7-5--------5-7----------7---------7--------------10--------555555---|
E|555-8------444--------333-8------444---------555-8------444----------333333----------|


G|-----------|
D|-----------|
A|-----------|
E|5~---------|

Almost there ...

Sign in to get your own page with links to favourite songs and more. You are just one click away...

Login with Facebook Login with Google