Log in

One click and you are in

Login with Facebook Login with Google

Why sign up and log in

Guitar Tabs Explorer
The Fall Of Troy bass tabs for Straight-jacket keelhauled

Straight-jacket Keelhauled bass tab - The Fall Of Troy

The Fall Of Troy bass tabs for Straight-jacket keelhauled

Bass tabs

-----------------------------------------------------------------
Straight Jacket Keelhauled - The Fall Of Troy
-----------------------------------------------------------------
Tabbed By : Lee
e-mail: tigerswithguns@hotmail.co.uk

Tuning: Standard

G|-------------------------------------|
D|-------------------------------------|
A|-66666666666665566666666888810101010-|
E|-------------------------------------|
                           x4
G|----3h4-3h4-----3h4-3h4-----3h4-3h4-----3h4-3h4-|
D|------------------------------------------------|
A|-3-----------3-----------3-----------3----------|
E|------------------------------------------------|

G|---------------------------------------------------|
D|----9109---------------------9109------------------|
A|-0-----------0---898----0---------5-3-533-33446666-| x2
E|---------------------------------------------------|

G|----------------------------------------------------------------|
D|----------------------------------------------------------------|
A|-5-3-533-33446666--5-3-533-33445555--5-3-533-33446666-5x5x5xx5x-|x2
E|----------------------------------------------------------------|

G|-----------------------------------------|
D|-----------------------------------------|
A|-5x5x5xx5x-4x4x4xx4x-3x3x3xx3x-2x2x3xx3x-| x2
E|-----------------------------------------|

G|-------------------------------------------------|
D|-------------------------------------------------|
A|-6x6x6xx6x-8x8x8xx8x-10x10x10xx10x-12x12x12xx12x-| x2
E|-------------------------------------------------|

G|--------------------------------------|
D|---------2-2-0------------------------|
A|-7-7-8-8--------7-7-7-7--1-1--7-7-7-7-|
E|--------------------------------------|

G|---------------------------|
D|---------------------------|
A|-7-7-8-8-12-12/1-12/1-12/1-|
E|---------------------------|

G|--------------------------------------|
D|---------2-2-0------------------------|
A|-7-7-8-8--------7-7-7-7--1-1--7-7-7-7-|
E|--------------------------------------|

G|----------------------------------------------------|
D|----------------------------------------------------|
A|-7-7-8-8-12-12/1-12/1-12/1-9999-12/1-12/1-12/1-9999-|
E|----------------------------------------------------|

G|-------------------------------------|
D|-------------------------------------|
A|-66666666666665566666666888810101010-|
E|-------------------------------------|
                           x4
G|----3h4-3h4-----3h4-3h4-----3h4-3h4-----3h4-3h4-|
D|------------------------------------------------|
A|-3-----------3-----------3-----------3----------|
E|------------------------------------------------|

G|--|
D|--|
A|5-|
E|--|


| / slide up
| \ slide down
| h hammer-on
| p pull-off
| ~ vibrato
| + harmonic
| x Mute note

Almost there ...

Sign in to get your own page with links to favourite songs and more. You are just one click away...

Login with Facebook Login with Google