Search tabs and chords

Search for song, artist or band

Log in

One click and you are in

Login with Facebook Login with Google

Why sign up and log in

Guitar Tabs Explorer
Chet Faker guitar tabs for The trouble with us

Guitar tabs

Chet Faker & Marcus Marr  The Trouble With Us
Enjoy!
No capo
Standard tuning

These chords can be used:
A chord diagramE minorEm         A chord diagramD MajorD          A chord diagramC majorC          A chord diagramA minorAm        Bm*
022000     533355     032010     002210    024420
*Bm only used in chorus
[C/B before and after A chord diagramA minorAm works]
In the order Em, D, C, Am, C, (A chord diagramB minorBm)

Or the tab:

Tab Legend
h  - hammer-on
p  - pull-off
/  - slide up
\  - slide down

[Verse 1:]
e|------------------------------------------------------------------/7-5----------------------|
B|-----------------------------------------------------------------------8-7-5-8--------------|
G|-0----------8----7\5----5-------5-----------0----------------0-0-----------------7\5----5---|
D|---0----------------------------------0------------0---0------------------------------------|
A|-----0h2--7----5-----3----2/3------2-----0--0----0---2----3--3-3---------------5------3-----|
E|--------------------------------------------------------------------------------------------|

e|--------------------------------------------------------------|
B|--------------------------------------------------------------|
G|--------5-----------0----------------0---0--------------------|
D|--------------0------------0---0-----------0------------------|
A|--2/3------2-----0--0----0---2----3---------0h2---------------|
E|--------------------------------------------------------------|

e|-------------------------------------------------------------/7-5----------------------|
B|------------------------------------------------------------------8-7-5-8--------------|
G|----8-----7\5---5-------5-----------0----------------0-0---------------------7\5----5--|
D|------------------------------0------------0---0---------------------------------------|
A|--7----5-----3----2/3------2-----0--0----0---2----3--3-3------------------5------3-----|
E|---------------------------------------------------------------------------------------|

e|--------------------------------------------------------------|
B|--------------------------------------------------------------|
G|--------5-----------0----------------0-0-0-0-0-0-0-0-0-0-0-0--|
D|--------------0------------0---0------------------------------|
A|--2/3------2-----0--0----0---2----3---------------------------|
E|--------------------------------------------------------------|

e|-------------------------------------------------------------------------|
B|-------------------------------------------------------------------------|
G|----8----7/5---5-------5------------0----------------0---0---------------|
D|------------------------------0------------0---0-----------0-------------|
A|--7----5-----3----2/3------2-----0--0----0---2----3---------0h2----------|
E|-------------------------------------------------------------------------|

e|------------------------------------------------------------------------------|
B|------------------------------------------------------------------------------|
G|----8----7/5---5-------5------------0----------------0-0-0-0-0-0-0-0-0-0-0-0--|
D|------------------------------0------------0---0------------------------------|
A|--7----5-----3----2/3------2-----0--0----0---2----3---------------------------|
E|------------------------------------------------------------------------------|

[Pre-Chorus:]
e|-------------------------------------------------------------/7-5----------------------|
B|------------------------------------------------------------------8-7-5-8--------------|
G|----8-----7\5---5-------5-----------0----------------0-0---------------------7\5----5--|
D|------------------------------0------------0---0---------------------------------------|
A|--7----5-----3----2/3------2-----0--0----0---2----3--3-3------------------5------3-----|
E|---------------------------------------------------------------------------------------|

e|---------------------------------------------------------------|
B|---------------------------------------------------------------|
G|--------5-----------0----------------0-0-0-0-0-0-0-0-0-0-0-0---|
D|--------------0------------0---0-------------------------------|
A|--2/3------2-----0--0----0---2----3----------------------------|
E|------------------------------------------------------------3--|

[Chorus x2:]
e|-------------------------------------------------------------------------|
B|-------------------------------------------------------------------------|
G|----8----7/5---5-------5------------0----------------0---0---------------|
D|------------------------------0------------0---0-----------0-------------|
A|--7----5-----3----2/3------2-----0--0----0---2----3---------0h2----------|
E|-------------------------------------------------------------------------|

e|-------------------------------------------------------------------------------|
B|-------------------------------------------------------------------------------|
G|----8----7/5---5-------5------------0----------------0-0-0-0-0-0-0-0-0-0-0-0---|
D|------------------------------0------------0---0-------------------------------|
A|--7----5-----3----2/3------2-----0--0----0---2----3----------------------------|
E|----------------------------------------------------------------------------3--|
(After second time through:)
e|----------------------|
B|----------------------|
G|----8----7\5----5-----|
D|----------------------|
A|--7---5-------3-------|
E|----------------------|

[Verse 2:]
e|----------------------------------------------------------/7-5----------------------|
B|---------------------------------------------------------------8-7-5-8--------------|
G|----8----7\5----5-------5-----------0----------------0-0-----------------7\5----5---|
D|------------------------------0------------0---0------------------------------------|
A|--7----5-----3----2/3------2-----0--0----0---2----3--3-3---------------5------3-----|
E|------------------------------------------------------------------------------------|

e|--------------------------------------------------------------|
B|--------------------------------------------------------------|
G|--------5-----------0----------------0---0--------------------|
D|--------------0------------0---0-----------0------------------|
A|--2/3------2-----0--0----0---2----3---------0h2---------------|
E|--------------------------------------------------------------|

e|-------------------------------------------------------------/7-5----------------------|
B|------------------------------------------------------------------8-7-5-8--------------|
G|----8-----7\5---5-------5-----------0----------------0-0---------------------7\5----5--|
D|------------------------------0------------0---0---------------------------------------|
A|--7----5-----3----2/3------2-----0--0----0---2----3--3-3------------------5------3-----|
E|---------------------------------------------------------------------------------------|

e|---------------------------------------------------------------|
B|---------------------------------------------------------------|
G|--------5-----------0----------------0-0-0-0-0-0-0-0-0-0-0-0---|
D|--------------0------------0---0-------------------------------|
A|--2/3------2-----0--0----0---2----3----------------------------|
E|------------------------------------------------------------3--|

e|-------------------------------------------------------------------------|
B|-------------------------------------------------------------------------|
G|----8----7/5---5-------5------------0----------------0---0---------------|
D|------------------------------0------------0---0-----------0-------------|
A|--7----5-----3----2/3------2-----0--0----0---2----3---------0h2----------|
E|-------------------------------------------------------------------------|

e|-------------------------------------------------------------------------------|
B|-------------------------------------------------------------------------------|
G|----8----7/5---5-------5------------0----------------0-0-0-0-0-0-0-0-0-0-0-0---|
D|------------------------------0------------0---0-------------------------------|
A|--7----5-----3----2/3------2-----0--0----0---2----3----------------------------|
E|----------------------------------------------------------------------------3--|

[Pre-Chorus:]
e|-------------------------------------------------------------/7-5----------------------|
B|------------------------------------------------------------------8-7-5-8--------------|
G|----8-----7\5---5-------5-----------0----------------0-0---------------------7\5----5--|
D|------------------------------0------------0---0---------------------------------------|
A|--7----5-----3----2/3------2-----0--0----0---2----3--3-3------------------5------3-----|
E|---------------------------------------------------------------------------------------|

e|---------------------------------------------------------------|
B|---------------------------------------------------------------|
G|--------5-----------0----------------0-0-0-0-0-0-0-0-0-0-0-0---|
D|--------------0------------0---0-------------------------------|
A|--2/3------2-----0--0----0---2----3----------------------------|
E|------------------------------------------------------------3--|

[Chorus x2:]
e|-------------------------------------------------------------------------|
B|-------------------------------------------------------------------------|
G|----8----7/5---5-------5------------0----------------0---0---------------|
D|------------------------------0------------0---0-----------0-------------|
A|--7----5-----3----2/3------2-----0--0----0---2----3---------0h2----------|
E|-------------------------------------------------------------------------|

e|-------------------------------------------------------------------------------|
B|-------------------------------------------------------------------------------|
G|----8----7/5---5-------5------------0----------------0-0-0-0-0-0-0-0-0-0-0-0---|
D|------------------------------0------------0---0-------------------------------|
A|--7----5-----3----2/3------2-----0--0----0---2----3-------------------------3--|
E|-------------------------------------------------------------------------------|

[Outro:]
e|-------------------------------------------------------------/7-5----------------------|
B|------------------------------------------------------------------8-7-5-8--------------|
G|----8-----7\5---5-------5-----------0----------------0-0---------------------7\5----5--|
D|------------------------------0------------0---0---------------------------------------|
A|--7----5-----3----2/3------2-----0--0----0---2----3--3-3------------------5------3-----|
E|---------------------------------------------------------------------------------------|

e|---------------------------------------------------------------|
B|---------------------------------------------------------------|
G|--------5-----------0----------------0-0-0-0-0-0-0-0-0-0-0-0---|
D|--------------0------------0---0-------------------------------|
A|--2/3------2-----0--0----0---2----3----------------------------|
E|------------------------------------------------------------3--|

Other versions of The Trouble With Us

The trouble with usChords

Almost there ...

Sign in to get your own page with links to favourite songs and more. You are just one click away...

Login with Facebook Login with Google