Search tabs and chords

Search for song, artist or band

Log in

One click and you are in

Login with Facebook Login with Google

Why sign up and log in

Guitar Tabs Explorer
Chet Faker bass tabs for Gold

Bass tabs with lyrics

Chet Faker - Gold

This song has a synth bass part and a bass guitar part. I've tabbed the bass guitar part, the synth usually
just holds one note for a lot of the song, so it can be hard to hear what part I've tabbed out at times. It's
still there, however!

Intro                    Chorus 1 (0.18 vocals enter)
      W                     Q.     E  E  E  E  E     E  E  H.
G||-------------------||-------------------------|---------------------|
D||-------------------||*---------4--6--4-----8--|-----6---------------|
A||-------------------||*--6---------------------|--------6------------|
E||-------------------||-------------------------|---------------------|
                    (Slide on last time)    (0.46)
  W                                    6x   E  E  E  E  E  E  E  E
-------------------|--------------------||---------------------------|
-------------------|-------------------*||*--------------------------|
--L----------------|---------6\--------*||*--6--6-----6--6--6-----6--|
-------------------|--------------------||---------------------------|


  E  E  E  E  E  E  E  E     E  E  E  E  E  E  E  E
--------------------------|--------------------------|
--------------------------|--------------------------|
--6--6-----6--6--6-----6--|--6--6-----6--6--6-----6--|
--------------------------|--------------------------|


                              (1.00 - Verse 1)        (1.27)
  E  E  E  E  E  E  E  E   4x         .             Q.     E  E  E  E  E
---------------------------||----------------------||-------------------------|
--------------------------*||----------------------||*---------4--6--4-----8--|
--6--6-----6--6--6-----6--*||----------------------||*--6---------------------|
---------------------------||----------------------||-------------------------|


  E  E  H.              W                   (Slide last time) 4x
---------------------|-------------------|--------------------||
-----6---------------|-------------------|-------------------*||
--------6------------|--L----------------|----------6\-------*||
---------------------|-------------------|--------------------||



(1.54) Chorus 2
    E  E  E  E  E  E  E  E     E  E  E  E  E  E  E  E
|---------------------------|--------------------------|
|*--------------------------|--------------------------|
|*--6--6-----6--6--6-----6--|--6--6-----6--6--6-----6--|
|---------------------------|--------------------------|




  E  E  E  E  E  E  E  E     E  E  E  E  E  E  E  E     (2.22 - Verse 2)
--------------------------|---------------------------||----------------|
--------------------------|--------------------------*||----------------|
--6--6-----6--6--6-----6--|--6--6-----6--6--6-----6--*||----------------|
--------------------------|---------------------------||----------------|



(2.49)
    Q.     E  E  E  E  E     E  E  H.              W
|-------------------------|---------------------|-------------------|
|*---------4--6--4-----8--|-----6---------------|-------------------|
|*--6---------------------|--------6------------|--L----------------|
|-------------------------|---------------------|-------------------|



  W       (2nd. time)  Q.     E  E  E  E  E
--------------------||-----------------------|
-------------------*||--------4--6--4-----8--|
--L--------6\------*||-6---------------------|
--------------------||-----------------------|




  E  E  Q    E  E  E  E     E  E  E  E  E  E  E  E     E  E  E  E  E  E  E  E
-------------------------|--------------------------|--------------------------|
-----6-------------------|--------------------------|--------------------------|
--------6----6--6-----6--|--6--6-----6--6--6-----6--|--6--6-----6--6--6-----6--|
-------------------------|--------------------------|--------------------------|



(3.10)
  E  E  E  E  E  E  E  E     E  E  E  E  E  E  E  E
--------------------------|--------------------------|
--------------------------|--------------------------|
--6--6-----6--6--6-----6--|--6--6-----6--6--6-----6--|
--------------------------|--------------------------|

                                                    (3.17) Chorus 3
  E  E  E  E  E  E  E  E     E  E  E  E  H
--------------------------|------------------------|-----------|
--------------------------|------------------------|-----------|
--6--6-----6--6--6-----6--|--6--6-----6--6\--------|-----------|
--------------------------|------------------------|-----------|


  (after 8 bars)             (3.31)
  H              H              E  E  E  E  E  E  E  E
---------------------------||---------------------------|
---------------------------||*--------------------------|
-----------------6\--------||*--6--6-----6--6--6-----6--|
---------------------------||---------------------------|


  E  E  E  E  E  E  E  E     E  E  E  E  E  E  E  E
--------------------------|--------------------------|
--------------------------|--------------------------|
--6--6-----6--6--6-----6--|--6--6-----6--6--6-----6--|
--------------------------|--------------------------|


  E  E  E  E  E  E  E  E   4x
---------------------------||
--------------------------*||
--6--6-----6--6--6-----6--*||

Almost there ...

Sign in to get your own page with links to favourite songs and more. You are just one click away...

Login with Facebook Login with Google