Log in

One click and you are in

Login with Facebook Login with Google

Why sign up and log in

Guitar Tabs Explorer
Faithless chords for Insomnia ukulele

Guitar chords

Tuning: G C E A (G C E A)


Intro:
A|----------------------|-------------------|
E|---3-3-1----1-1-0-----|----0-0-1----1-0-1-|
C|---2-2-2----2-2-0-----|----0-0-0----0-0-0-|
G|----------------------|-------------------|

A|----------------------|-------------------|
E|---3-3-1----1-1-0-----|----0-0-1----1-0-1-|
C|---2-2-2----2-2-2-----|----2-2-2----2-2-2-|
G|----------------------|-------------------|

 (x2)
A|----------------------|-------------------|
E|---3-3-5----5-5-0-----|----0-0-1----1-0-1-|
C|---2-2-2----2-2-2-----|----2-2-2----2-2-2-|
G|----------------------|-------------------|

 Intro Pt 2:
A|--10-10--8---8--8-7-----|----7-7-8----8-7-8-|
E|--10-10-10--10-10-8-----|----8-8-8----8-8-8-|
C|------------------------|-------------------|
G|------------------------|-------------------|

A|--10-10--8---8--8-7-----|-----7--7--8----8--7--8-|
E|--10-10-10--10-10-10----|----10-10-10---10-10-10-|
C|------------------------|------------------------|
G|------------------------|------------------------|

A|--10-10-12--12-12-7-----|-----7--7--8----8--7--8-|
E|--10-10-10--10-10-10----|----10-10-10---10-10-10-|
C|------------------------|------------------------|
G|------------------------|------------------------|

A|--10-10-12--12-12-7-----|-----7--7--8----8--7--8-|
E|--10-10-10--10-10-8-----|-----8--8-10---10-10-10-|
C|------------------------|------------------------|
G|------------------------|------------------------|

 Melody:
A|---------------|---------|---------------|---------|
E|---------------|---------|---------------|---------|
C|---2---2---0---|----0----|---2---2---0---|----2----|
G|---------------|---------|---------------|---------|

A|---------------|---------|---------------|---------|
E|---------------|---------|---------------|---------|
C|---2---2---2---|----2----|---2---2---0---|----2----|
G|---------------|---------|---------------|---------|

 Dsus4   Dm   Am   Bbmaj7   Bmaj7 (add4)  D5
A|------|--1-----|-------|--1---------|------------|--------|
E|----3-|-----2--|-------|----2-------|------------|xxxxxxxx|
C|--2---|-----2--|-------|------3-----|--2---------|---2----|
G|--2---|--------|--2----|------------|----3-------|---2----|


Outro:
Dsus4 Dm Am Bbmaj7 Bmaj7 Bbmaj7
Dsus4 D5 Am Bbmaj7 Bmaj7 Bbmaj7

Almost there ...

Sign in to get your own page with links to favourite songs and more. You are just one click away...

Login with Facebook Login with Google