Log in

One click and you are in

Login with Facebook Login with Google

Why sign up and log in

Guitar Tabs Explorer
Marianne Faithfull guitar tabs for Come my way

Guitar tabs with lyrics

Intro:

e|-------------------------------------|
B|--1----1---1----1---1----1---1----1--|
G|--0----0---3----3---2----2---0----0--| x2
D|----2--------3--------3--------2-----|
A|-----3--------3--------3--------3----|
E|-------------------------------------|

Verse:

e|--------------------------------------------------------------------------|
B|--1----1---1----1---1----1---1----1---1----1---1----1---1----1---1----1---|
G|--0----0---3----3---2----2---0----0---0----0---3----3---0----0---0----0---| x2
D|----2--------3--------3--------2--------2--------3--------2--------2------|
A|-----3--------3--------3--------3--------3--------3--------3--------3-----|
E|--------------------------------------------------------------------------|


Chorus:

e|---------------------------------------------------------------------------|
B|--1----1---3----3---5----5---6----6---1----1---1----1---1----1---1---1-----|
G|--0----0---0----0---0----0---0----0---2----2---2----2---2----2---2---2-----|
D|----2--------5--------7--------8--------3--------3--------3--------3---3---|
A|-----3--------5--------7--------8--------3--------3--------3---------------|
E|---------------------------------------------------------------------------|

e|---------------------------------------------------------------------------|
B|--0----0------------1----1---0----0---1----1---1----1---1----1---1----1----|
G|--0----0---2----2---0----0---0----0---0----0---3----3---2----2---0----0----|
D|----3--------3--------3--------3--------2--------3--------3--------2-------|
A|-----3--------3--------3--------0--------3--------3--------3--------3------|
E|---------------------------------------------------------------------------|



Outro:

e|----------------------------------|
B|--1----1---1----1---1----1---1----|
G|--0----0---3----3---2----2---0----|
D|----2--------3--------3------2----|
A|-----3--------3--------3-----3----|
E|----------------------------------|


The wild mountain thyme that grows around my door

Has grown there for two score years or more

And I've grown weary waiting for love to say

"Come my way, come my way"


The brook that sings and twinkles in the sun

Has danced this mercy dance since time begun

But o how weary and how long the day will he say

"Come my way"


Lovers all around, I wish you joy

Happiness to every girl and boy

But sometimes spare a thought of me and say

"Love come her way, come my way"

↓ Add and view comments below ↓

What do you think about this song and these tabs?

Add your comments, questions, rant or a thumbs up below.

Almost there ...

Sign in to get your own page with links to favourite songs and more. You are just one click away...

Login with Facebook Login with Google