Log in

One click and you are in

Login with Facebook Login with Google

Why sign up and log in

Guitar Tabs Explorer
Faith No More bass tabs for Midlife crisis

Bass tabs with lyrics

Faith No More
Midlife Crisis

    w 8x   e e e e e e e e 7x e e e e e e e e  e e e e e e e e
---||--r--||-||-------------------||-----------------|-----------------|
4:-||*-e-*||-||*-----------------*||-----------------|-----------------|
4:-||*-s-*||-||*-----------------*||-------5---5---5-|-7---------------|
---||--t--||-||--0-0-0-0-0-0-0-0--||-0-0-0---0---0---|---0-0-0-0-0-0-0-|
         1st Verse

  e e e e e e e e 7x q e e e e e e   e e e e e e e e 5x e e e e e e e e
||-------------------||----------------||-------------------||-----------------|
||*-----------------*||----------------||*-----------------*||-----------------|
||*-----------------*||----------------||*-----------------*||---------------7\|
||--0-0-0-0-0-0-0-0--||-12\0-0-0-0-0-0-||--0-0-0-0-0-0-0-0--||-0-0-0-0-0-0-0---|
            Chorus

 e s s E s s s e s E  e s s E s s s e s E   e e e e e e e e 7x
|-r---------------r---|-r---------------r---||-------------------||
|-e---------------e---|-e---------------e---||*-----------------*||
|-s-5-5-7-5-7-5---s-7\|-s-5-5-7-5-7-5---s-7\||*-----------------*||
|-t-------------7\t---|-t-------------7\t---||--0-0-0-0-0-0-0-0--||

 e e e e e e e e  e e e e e e e e   e e e e e e e e 6x e e e e e e e e
|-----------------|-----------------||-------------------||-----------------|
|-----------------|-----------------||*-----------------*||-----------------|
|-------5---5---5-|-7---------------||*-----------------*||-------5---5---5-|
|-0-0-0---0---0---|---0-0-0-0-0-0-0-||--0-0-0-0-0-0-0-0--||-0-0-0---0---0---|
          2nd Verse

  e e e e e e e e  e e e e e e e e 6x e e e e e e e e  e e e e e e e e
|-----------------||-------------------||-----------------|-----------------|
|-----------------||*-----------------*||-----------------|-----------------|
|-7\--------------||*-----------------*||-------5---5---5-|-7\--------------|
|---0-0-0-0-0-0-0-||--0-0-0-0-0-0-0-0--||-0-0-0---0---0---|---0-0-0-0-0-0-0-|
 Chorus

  e e e e e e e e 5x e e e e e e e e  e s s E s s s e s E
||-------------------||-----------------|-r---------------r---|
||*-----------------*||-----------------|-e---------------e---|
||*-----------------*||---------------7\|-s-5-5-7-5-7-5---s-7\|
||--0-0-0-0-0-0-0-0--||-0-0-0-0-0-0-0---|-t-------------7\t---|

 e s s E s s s e s E   w 8x w +w  w +w  w +w  w +w  w +w
|-r---------------r---||--r--||---|---|---|---|---|---|---|---|---|---|
|-e---------------e---||*-e-*||---|---|---|---|---|---|---|---|---|---|
|-s-5-5-7-5-7-5---s-7\||*-s-*||---|---|---|---|-2-|-2-|---|---|---|---|
|-t-------------7\t---||--t--||-0-|-0-|-3-|-3-|---|---|-0-|-0-|-3-|-3-|

 e e e e e e e e  e e e e e e q   e e e e e e e e 5x e e e e e e e e
|-----------------|-----------r-r-||-------------------||-----------------|
|-----------------|-----------e-e-||*-----------------*||-----------------|
|-2-2-2-2-2-2-2-2-|-2-2-2-2-2-s-s-||*-----------------*||---------------7\|
|-----------------|-----------t-t-||--0-0-0-0-0-0-0-0--||-0-0-0-0-0-0-0---|
                   Outro

 e e e e e e e e  e s s E s s s e s E  e s s E s s s e s E
|-----------------|-r---------------r---|-r---------------r----|| Go back to
|-----------------|-e---------------e---|-e---------------e---*|| "Outro,"
|---------------7\|-s-5-5-7-5-7-5---s-7\|-s-5-5-7-5-7-5---s-7\*|| repeat and
|-0-0-0-0-0-0-0---|-t-------------7\t---|-t-------------7\t----|| fade out.


1. Credits

All songs by Faith No More except Midnight Cowboy: by John Barry,
Performed by Faith No More. From the album Angel Dust and the maxi-
single Songs To Make Love To. (C) 1969 EMI U Catalog Inc./Barwin
Music, Inc. This Arrangement (C) 1992 EMI U Catalog Inc./Barwin
Music, Inc. (ASCAP)

All transcriptions by Joe White except "A Small Victory" which appeared
in Guitar For The Practicing Musician, Sept. 1992. This transcription
was re-tabbed, as the origional had too many nuances that needn't be
transcribed.

Joe White claims no copyright on these tabs, the copyright belongs to
Faith No More's publishing company. Feel free to use these files, edit
them, etc. Just give credit to me, like this:

transcribed by Joe White (barlitone@aol.com)


2. Tablature Explanation
 ===========================================================================
 ==                All Songs                ==
 ==                                    ==
 ==                                    ==
 ==             TABLATURE EXPLANATION             ==
 ===========================================================================

 ----------        ----------        ----t---
 ----5h8--- Hammeron    ----(8)--- Ghost     ----6--- Tap
 ----------        ---------- Note      --------
 ----5p8--- Pulloff    ----------        --------

 ----------        ----------        -----p--
 ----5/8--- Slide Up    -----x---- Dead      -----7-- Pop
 ----------        ---------- Note      --s-----
 ----5\8--- Slide Down   ----------        --5----- Slap

 ----------        ||------|| Repeat     --------
 ----5~~~-- Vibrato    ||*----*||        ---5^--- Bend
 ----------        ||*----*||        -------- (up, one step)
 ----------        ||------||        --------
                             (1)
               tr~~
 ----------        ---------- Trill to    --------
 -4:------- Time      ---------- note in    ---5^--- Bend
 -4:------- Signature   -0(1)----- parenthesis  -------- (up, 1/2 step)
 ----------        ----------        --------
                            (1/2)

Rhythm:
 w = whole note      W = dotted whole
 h = half note       H = dotted half
 q = quarter note     Q = dotted quarter
 e = eighth note      E = dotted eighth
 s = sixteenth note    S = dotted sixteenth
 t = 32nd note       T = dotted 32nd
 x = 64th note       X = dotted 64th
 ^ = triplet        + = tie to previous note

Other versions of Midlife Crisis

Midlife crisis (Ver. 2)Bass tabs

Almost there ...

Sign in to get your own page with links to favourite songs and more. You are just one click away...

Login with Facebook Login with Google