Log in

One click and you are in

Login with Facebook Login with Google

Why sign up and log in

Guitar Tabs Explorer
Faith No More bass tabs for Midlife crisis (Ver. 2)

Bass tabs

Tuning: Standard
🏷Legend:
* = staccato
/ = slide up
\ = slide down
s = 16th note
r = 8th note rest
()= held/continued note

Follow along with the song:



INTRO (DRUMS):

    Rest x8
G |-----------------|
D |-----------------|
A |-----------------|
E |-----------------|
  1 & 2 & 3 & 4 &


VERSE:
     (x7)
G |-----------------|-----------------|
D |-----------------|-----------------|
A |-----------------|-------5---5---5-|
E |-0*0*0*0*0*0*0*0*|-0*0*0*--0---0---|
  1 & 2 & 3 & 4 &  1 & 2 & 3 & 4 &


PRE-CHORUS 1:
              (x6)
G |-----------------|-----------------|-----------------|
D |-----------------|-----------------|-----------------|
A |-7---------------|-----------------|-----------------|
E |---0*0*0*0*0*0*0*|-0*0*0*0*0*0*0*0*|-0*0*0*0*0*0-0-0-|
  1 & 2 & 3 & 4 &  1 & 2 & 3 & 4 &  1 & 2 & 3 & 4 &


CHORUS 1:
  ss            (x3)
G |-----------------|-----------------|------------------|------------------|
D |-----------------|-----------------|------------------|------------------|
A |-77--------------|-----------------|------------------|------------------|
E |-----0*0*0*0*0*0*|-0*0*0*0*0*0*0*0*|/12*0*0*0*0*0*0*0*|-0*0*0*0*0*0*0-12\|
  1 & 2 & 3 & 4 &  1 & 2 & 3 & 4 &  1 & 2 & 3 & 4 &  1 & 2 & 3 & 4 &

      s s s         s s s
G |-----------------------|------------------------|
D |-----------------------|------------------------|
A |-----------------------|------------------------|
E |-r-7/12-10-12-10-0---r-|-r-7/12-10-12-10-0-r-12\|
  1 & 2 &  3   & 4 &  1 & 2 &  3  & 4 &


PRE-VERSE (x4):
           _________________ _________________
          /1,2,3      /4
G |-----------------|-----------------|-----------------|
D |-----------------|-----------------|-----------------|
A |-----------------|-----------------|-------5---5---5-|
E |-0*0*0*0*0*0*0*0*|-0*0*0*0*0*0*0*0*|-0*0*0*--0---0---|
  1 & 2 & 3 & 4 &  1 & 2 & 3 & 4 &  1 & 2 & 3 & 4 &


VERSE 2:
              (x6)
G |-----------------|-----------------|-----------------|
D |-----------------|-----------------|-----------------|
A |-7---------------|-----------------|-------5---5---5-|
E |---0*0*0*0*0*0*0*|-0*0*0*0*0*0*0*0*|-0*0*0*--0---0---|
  1 & 2 & 3 & 4 &  1 & 2 & 3 & 4 &  1 & 2 & 3 & 4 &


PRE-CHORUS 2:
              (x6)
G |-----------------|-----------------|-----------------|
D |-----------------|-----------------|-----------------|
A |-7---------------|-----------------|-----------5-7-5-|
E |---0*0*0*0*0*0*0*|-0*0*0*0*0*0*0*0*|-0*0*0*0*0*------|
  1 & 2 & 3 & 4 &  1 & 2 & 3 & 4 &  1 & 2 & 3 & 4 &


CHORUS 2:
              (x4)
G |-----------------|-----------------|-----------------|
D |-----------------|-----------------|-----------------|
A |-7---------------|-----------------|-----------------|
E |---0*0*0*0*0*0*0*|-0*0*0*0*0*0*0*0*|-0*0*0*0*0*0*0---|
  1 & 2 & 3 & 4 &  1 & 2 & 3 & 4 &  1 & 2 & 3 & 4 &

      s s s         s s s
G |-------------------------|------------------------|
D |-------------------------|------------------------|
A |-------------------------|------------------------|
E |-r-7/12-10-12-10-0---12\-|-r-7/12-10-12-10-0-r-12\|
  1 & 2 &  3   & 4 &   1 & 2 &  3  & 4 &


REFRAIN:
    (Rest x8)
G |-----------------|
D |-----------------|
A |-----------------|
E |-----------------|
  1 & 2 & 3 & 4 &


BRIDGE:

G |-----------------|-----------------|-----------------|-----------------|
D |-----------------|-----------------|-----------------|-----------------|
A |-----------------|-----------------|-----------------|-----------------|
E |-0---------------|(0)--------------|-3---------------|(3)--------------|
  1 & 2 & 3 & 4 &  1 & 2 & 3 & 4 &  1 & 2 & 3 & 4 &  1 & 2 & 3 & 4 &

G |-----------------|-----------------|-----------------|-----------------|
D |-----------------|-----------------|-----------------|-----------------|
A |-----------------|-----------------|-----------------|-----------------|
E |-2---------------|(2)--------------|-0---------------|(0)--------------|
  1 & 2 & 3 & 4 &  1 & 2 & 3 & 4 &  1 & 2 & 3 & 4 &  1 & 2 & 3 & 4 &

G |-----------------|-----------------|-----------------|-----------------|
D |-----------------|-----------------|-----------------|-----------------|
A |-----------------|-----------------|-2-2-2-2-2-2-2-2-|-2-2-2-2*--------|
E |-3---------------|(3)--------------|-----------------|-----------------|
  1 & 2 & 3 & 4 &  1 & 2 & 3 & 4 &  1 & 2 & 3 & 4 &  1 & 2 & 3 & 4 &


CHORUS 3:
     (x5)
G |-----------------|------------------|
D |-----------------|------------------|
A |-----------------|------------------|
E |-0*0*0*0*0*0*0*0*|-0*0*0*0*0*0*0/12\|
  1 & 2 & 3 & 4 &  1 & 2 & 3 & 4 &

      s s s         s s s
G |-------------------------|------------------------|
D |-------------------------|------------------------|
A |-------------------------|------------------------|
E |-r-7/12-10-12-10-0---12\-|-r-7/12-10-12-10-0-r-12\|
  1 & 2 &  3   & 4 &   1 & 2 &  3  & 4 &


OUTRO (Repeat to fade out):
              (x4)
G |-----------------|-----------------|-----------------|
D |-----------------|-----------------|-----------------|
A |-----------------|-----------------|-----------------|
E |-r-0*0*0*0*0*0*0*|-0*0*0*0*0*0*0*0*|-0*0*0*0*0*0*0---|
  1 & 2 & 3 & 4 &  1 & 2 & 3 & 4 &  1 & 2 & 3 & 4 &

      s s s         s s s
G |-------------------------|------------------------|
D |-------------------------|------------------------|
A |-------------------------|------------------------|
E |-r-7/12-10-12-10-0--/12\-|-r-7/12-10-12-10-0--/12\|
  1 & 2 &  3   & 4 &   1 & 2 &  3  & 4 &

Other versions of Midlife Crisis

Midlife crisisBass tabs

Almost there ...

Sign in to get your own page with links to favourite songs and more. You are just one click away...

Login with Facebook Login with Google