Log in

One click and you are in

Login with Facebook Login with Google

Why sign up and log in

Guitar Tabs Explorer
Faith No More guitar tabs for Easy

Guitar tabs

Corrections by: r_piatek@hotmail.com (Ray)

-------------------------|----------------------|------
-----------------/(21)---|----------------------|------
------------13-----------|----------------------|------
-------------------------|----------------------|------
--13br-------------------|--13br----------------|------
--------16---------------|--------16-16----16\--|------
-----------------------------------------------------------------
------------16---------------------------------------------------
---------------15--13--------------------------------------------
------------------------16--15--13^^-13--15--13------------------
--13br-------------------------------------------15--15brbrb-----
--------16-------------------------------------------------------


-------------------------|--------------------------
--------------------/(21)|--------------------------
-----------13------------|--------------------------
-------------------------|--------------------------
-13br--------------------|---13br-------------------
-------16----------------|--------16-16----16\------

--------------------------------------------------
------------16------16----------------------------
----------------15------13b-15-15-13h15p13--------
--------------------------------------------15--
--13br--------------------------------------------
---------16---------------------------------------

			     Bend 2 steps
---------------------------------------------------
-----------------------------16br-(16)^^-----------
---------------------------------------------------
---------------------------------------------------
--15--15--------15--13^^---------------------------
---------------------------------------------------

Other versions of Easy

EasyChords
Easy (Ver. 2)Chords
Easy (Ver. 3)Chords
Easy (Ver. 2)Tabs

Almost there ...

Sign in to get your own page with links to favourite songs and more. You are just one click away...

Login with Facebook Login with Google