Log in

One click and you are in

Login with Facebook Login with Google

Why sign up and log in

Guitar Tabs Explorer
Faith No More bass tabs for Digging the grave

Bass tabs

Digging The Grave
by Faith No More
From the album King For A Day/Fool For A Lifetime
(C) 1995 Big Thrilling Music/Give Us Our Publishing
transcribed by dougc@umd.umich.edu (Douglas William Cole)
re-tabbed by Joe White

    e e e e e e e e  e e e e e e e e  e e e e e e e e  e e e e e e e e 4x
---||------------------|-----------------|-----------------|------------------||
4:-||*-----------------|-----------------|-----------------|-----------------*||
4:-||*-3-3-3-3-3-3-3-3-|-----------------|-5-5-5-5-5-5-5-5-|-----------------*||
---||------------------|-4-4-4-4-4-4-4-4-|-----------------|-6-6-6-6-6-6-6-6--||
   1st Verse

  e e e e e e e e  e e e e e e e e  e e e e e e e e  e e e e e e e e
||------------------|-----------------|-----------------|-----------------|
||*-----------------|-----------------|-----------------|-----------------|
||*-----------------|-----------------|-----------------|-----------------|
||--0-0-0-0-0-0-0-0-|-8-8-8-8-8-8-8-8-|-0-0-0-0-0-0-0-0-|-8-8-8-8-8-8-8-8-|
 Chorus

 e e e e e e e e  e e e e e e e e  e e e e e e e e  e e e e e e e e 2x
|---------r-------|---------r-------|---------r-------|---------r--------||
|---------e-------|---------e-------|---------e-------|---------e-------*||
|---------s-5-5-5-|---------s-------|---------s-5-5-5-|---------s-------*||
|-7-7-5-7-t-------|-7-7-5-7-t-8-8-8-|-7-7-5-7-t-------|-7-7-5-7-t-8-8-8--||

  e e e e e e e e  e e e e e e e e  e e e e e e e e  e e e e e e e e 4x
||------------------|-----------------|-----------------|------------------||
||*-----------------|-----------------|-----------------|-----------------*||
||*-3-3-3-3-3-3-3-3-|-----------------|-5-5-5-5-5-5-5-5-|-----------------*||
||------------------|-4-4-4-4-4-4-4-4-|-----------------|-6-6-6-6-6-6-6-6--||
 2nd Verse

  e e e e e e e e  e e e e e e e e  e e e e e e e e  e e e e e e e e
||------------------|-----------------|-----------------|-----------------|
||*-----------------|-----------------|-----------------|-----------------|
||*-----------------|-----------------|-----------------|-----------------|
||--0-0-0-0-0-0-0-0-|-8-8-8-8-8-8-8-8-|-0-0-0-0-0-0-0-0-|-8-8-8-8-8-8-8-8-|
 Chrous

 e e e e e e e e  e e e e e e e e  e e e e e e e e  e e e e e e e e 2x
|---------r-------|---------r-------|---------r-------|---------r--------||
|---------e-------|---------e-------|---------e-------|---------e-------*||
|---------s-5-5-5-|---------s-------|---------s-5-5-5-|---------s-------*||
|-7-7-5-7-t-------|-7-7-5-7-t-8-8-8-|-7-7-5-7-t-------|-7-7-5-7-t-8-8-8--||

  w 3x H q   e e e e e e e e  e e e e e e e e  e e e e e e e e
||--r--||-r----||------------------|-----------------|-----------------|
||*-e-*||-e----||*-----------------|-----------------|-----------------|
||*-s-*||-s-5\-||*-3-3-3-3-3-3-3-3-|-3-3-3-3-3-3-3-3-|-3-3-3-3-3-3-3-3-|
||--t--||-t----||------------------|-----------------|-----------------|
 Interlude

 e e e e e e e e  e e e e e e e e  e e e e e e e e  e e e e e e e e
|-----------------|-----------------|-----------------|-------------------------|
|-----------------|-----------------|-----------------|-------------------------|
|-3-3-3-3-3-3-3-3-|-7-7-7-7-7-7-7-7/|-9-9-9-9-9-9-9-9/|-10-10-10-10-10-10-10-10\|
|-----------------|-----------------|-----------------|-------------------------|

 e e e e e e e e 2x e e q q e e 4x e e e e e e e e 4x
|------------------||---------------||-------------------||
|-----------------*||*-------------*||*-----------------*||
|-0-5-5-5-5-5-5-5-*||*-----7-7\----*||*-----7-5---------*||
|------------------||--0-0-----0-0--||--0-0-----7-5-3-0--||
            |        |
       (Don't play these notes on the repeats.)

  e e e e e e e e  e e e e e e e e  e e e e e e e e  e e e e e e e e
||------------------|-----------------|-----------------|-----------------|
||*-----------------|-----------------|-----------------|-----------------|
||*-----------------|-----------------|-----------------|-----------------|
||--0-0-0-0-0-0-0-0-|-8-8-8-8-8-8-8-8-|-0-0-0-0-0-0-0-0-|-8-8-8-8-8-8-8-8-|
 Chorus

 e e e e e e e e  e e e e e e e e  e e e e e e e e  e e e e e e e e 2x
|---------r-------|---------r-------|---------r-------|---------r--------||
|---------e-------|---------e-------|---------e-------|---------e-------*||
|---------s-5-5-5-|---------s-------|---------s-5-5-5-|---------s-------*||
|-7-7-5-7-t-------|-7-7-5-7-t-8-8-8-|-7-7-5-7-t-------|-7-7-5-7-t-8-8-8--||

  e e e e e e e e  e e e e e e e e  e e e e e e e e  e e e e e e e e 4x
||------------------|-----------------|-----------------|------------------||
||*-----------------|-----------------|-----------------|-----------------*||
||*-3-3-3-3-3-3-3-3-|-----------------|-5-5-5-5-5-5-5-5-|-----------------*||
||------------------|-4-4-4-4-4-4-4-4-|-----------------|-6-6-6-6-6-6-6-6--||
 Chrous

Almost there ...

Sign in to get your own page with links to favourite songs and more. You are just one click away...

Login with Facebook Login with Google