Log in

One click and you are in

Login with Facebook Login with Google

Why sign up and log in

Guitar Tabs Explorer
Faith No More bass tabs for Ashes to ashes

Bass tabs

Ashes To Ashes
by Faith No More
From the album Album Of The Year
(C) 1997 FNM Music (ASCAP)
transcribed by Joe White

(Dropped D Tuning)
    w 3x e e e e e e q   e e e e e e e e  e e e e e e e e 4x
---||--r--||-------------r-||------------------|------------------||
4:-||*-e-*||-------------e-||*-----------------|-----------------*||
4:-||*-s-*||-----5-----5-s-||*-----------------|-----------------*||
---||--t--||-0-0---0-0---t-||--0-0-0-0-0-0-0-0-|-0-0-0-0-0-0-0-0--||
    Intro          1st Verse

  e e e e e e e e 4x e e e e e e e e  e e e e e e e e  e e e e e e e e
||-------------------||-----------------|-----------------|-----------------|
||*-----------------*||-----------------|-----------------|-----------------|
||*-----------------*||-----------------|-----------------|-3-3-3-3-3-3-3-3-|
||--0-0-0-0-0-0-0-0--||-3-3-3-3-3-3-3-3-|-3-3-3-3-3-3-3-3-|-----------------|
  Pre-Chorus     Chorus

 e e e e e e e e  e e e e e e e e  e e e e e e e e  e e e e e e e e
|-----------------|-----------------|-----------------|-----------------|
|-----------------|-----------------|-----------------|-----------------|
|-3-3-3-3-3-3-3-3-|-----------------|-----------------|-1-1-1-1-1-1-1-1-|
|-----------------|-3-3-3-3-3-3-3-3-|-3-3-3-3-3-3-3-3-|-----------------|

 e e e e e e e e   e e e e e Q 4x e e e e e e e e  e e e e e e e e 4x
|-----------------||---------------||------------------|------------------||
|-----------------||*-------------*||*-----------------|-----------------*||
|-1-1-1-1-1-3-3-3-||*-----5-----5\*||*-----------------|-----------------*||
|-----------------||--0-0---0-0----||--0-0-0-0-0-0-0-0-|-0-0-0-0-0-0-0-0--||
          Let Ring      2nd Verse

  s s s s s s s s s s s s s s s s 4x s s s s s s s s s s s s s s s s 3x
||-----------------------------------||-----------------------------------||
||*---------------------------------*||*---------------------------------*||
||*-5-5-5-5-5-5-5-5-5-5-5-5-5-5-5-5-*||*-5-5-5-5-5-5-5-5-5-5-5-5-5-5-5-5-*||
||-----------------------------------||-----------------------------------||
                     Pre-chorus

 e e e e e e e e  e e e e e e e e  e e e e e e e e  e e e e e e e e
|-----------------|-----------------|-----------------|-----------------|
|-----------------|-----------------|-----------------|-----------------|
|-----------------|-----------------|-3-3-3-3-3-3-3-3-|-3-3-3-3-3-3-3-3-|
|-3-3-3-3-3-3-3-3-|-3-3-3-3-3-3-3-3-|-----------------|-----------------|
 Chorus

 e e e e e e e e  e e e e e e e e  e e e e e e e e  e e e e e e e e
|-----------------|-----------------|-----------------|-----------------|
|-----------------|-----------------|-----------------|-----------------|
|-----------------|-----------------|-1-1-1-1-1-1-1-1-|-1-1-1-1-1-3-3-3-|
|-3-3-3-3-3-3-3-3-|-3-3-3-3-3-3-3-3-|-----------------|-----------------|

  e e e e e e e e 4x s s s s s s s s s s s s s s s s 6x
||--------------r----||-----------------------------------||
||*-------------e---*||*---------------------------------*||
||*-------------s---*||*---------------------------------*||
||--0-0-3-0-3-0-t-0--||--0-0-0-0-0-0-0-0-0-0-0-0-0-0-0-0--||
             Guitar Solo

  s s s s s s s s s s s s s s s s 2x e e Q e e e  e e Q e e e
||-----------------------------------||-----r---r---|-----r---r---|
||*---------------------------------*||-----e---e---|-----e---e---|
||*-5-5-5-5-5-5-5-5-5-5-5-5-5-5-5-5-*||-----s---s---|-----s---s---|
||-----------------------------------||-0-0-t-0-t-0-|-0-0-t-0-t-0-|
                    Pre-Chorus

 e e Q e e e e  e e H  e e Q e e e e  e e H  e e Q e e e
|-----r---r---r-|-----r-|-----r---r---r-|-----r-|-----r-------|
|-----e---e---e-|-----e-|-----e---e---e-|-----e-|-----e-------|
|-----s---s---s-|-----s-|-----s---s---s-|-----s-|-----s-------|
|-0-0-t-0-t-0-t-|-0-0-t-|-0-0-t-0-t-0-t-|-0-0-t-|-0-0-t-0-0-0-|

 e e e e e e e e  e e e e e e e e  e e e e e e e e  e e e e e e e e
|-----------------|-----------------|-----------------|-----------------|
|-----------------|-----------------|-----------------|-----------------|
|-----------------|-----------------|-----------------|-3-3-3-3-3-3-3-3-|
|-0-0-0-0-0-0-0-0-|-3-3-3-3-3-3-3-3-|-3-3-3-3-3-3-3-3-|-----------------|
          Chorus

 e e e e e e e e  e e e e e e e e  e e e e e e e e  e e e e e e e e
|-----------------|-----------------|-----------------|-----------------|
|-----------------|-----------------|-----------------|-----------------|
|-3-3-3-3-3-3-3-3-|-----------------|-----------------|-1-1-1-1-1-1-1-1-|
|-----------------|-3-3-3-3-3-3-3-3-|-3-3-3-3-3-3-3-3-|-----------------|

 e e e e e e e e   e e e e e e e e 7x e e e e e q e
|-----------------||--------------r----||-------------r-||
|-----------------||*-------------e---*||-------------e-||
|-1-1-1-1-1-3-3-3-||*-------------s---*||-------------s-||
|-----------------||--0-0-3-0-3-0-t-0--||-0-0-3-0-3-0-t-||
           Outro

Almost there ...

Sign in to get your own page with links to favourite songs and more. You are just one click away...

Login with Facebook Login with Google