Its Alright Ma, Its Only Witchcraft by Fairport Convention

Its Alright Ma, Its Only Witchcraft tab by Fairport Convention (Solo)

Guitar tabs

  • Tuning: Standard tuning
  • Difficulty: Intermediate
-----------------------------------------------------------------------------
                     Artist - Fairport Convention
                     ******************************
                 Song - It`s Alright Ma, It`s Only Witchcraft
                 **********************************************
                       Tabbed By - Ayreon77
                      **********************
-----------------------------------------------------------------------------
Tuning = Standard


00:44
e|-------------------5---------|
B|-brp-----------b-5---8-----s-|
G|-7--5---5-7-5--7-------5--7\-|
D|------7----------------------|
A|-----------------------------|
E|-----------------------------|

00:51
e|-------------------|
B|-------------------|
G|-------------------|
D|--s---s-----s---s--|
A|-5\7-5\7---5\7-5\7-|
E|-------------------|



01:00
SOLO 1
                   rbp       br    b  br
e|-------5--p----|-------5-8-9-10-11-10--8------|----12--------12--12----------|
B|--h--5---8-5---|--h--5------------------10--s-|-10-------10---------10----10-|
G|-5-6-----------|-5-6-----------------------9\-|-------11---------------11----|
D|-------------7-|------------------------------|------------------------------|
A|---------------|------------------------------|------------------------------|
E|---------------|------------------------------|------------------------------|


e|--------b---brp-----p----b--b--b-|--b----------------s-|
B|-12-10-12--12--10-12-10-13-13-13-|-13-13-10----10-10-\-|
G|---------------------------------|----------11---------|
D|---------------------------------|---------------------|
A|---------------------------------|---------------------|
E|---------------------------------|---------------------|

01:13
e|----------------------------------|-5-------------------------------------------------------------|
B|-5-b-5-brp-----------5-brp---p----|---brp---p------h-p-----b------------------------------------s-|
G|---7---7--5-7-7-5-7----7--5-7-5-7-|---7--5-7-5----5-7-5----7~~~-7~~~-7~~~-7~~~-7~~~-7~~~-7~~~-7~\-|
D|----------------------------------|------------7--------7-----------------------------------------|
A|----------------------------------|---------------------------------------------------------------|
E|----------------------------------|---------------------------------------------------------------|




01:43
e|-----------10-7----b-|
B|---------8---------8-|
G|---5-6-7--------9----|
D|-7-------------------|
A|---------------------|
E|---------------------|


01:50
e|---------------------rb----b-|
B|-s--8-8-8--s--8-10--10----8--|
G|-\9--------\9----------------|
D|-----------------------------|
A|-----------------------------|
E|-----------------------------|



01:58
SOLO 2
e|------------------------------------|-----------------------|-----------|-------------|
B|------------------------------------|-----------------------|-----------|-------------|
G|------------------------------------|-----------------------|-----------|-------------|
D|------------------------------------|---------br-----s------|--------p--|--s---s------|
A|-s---s---s---s---s---s---s--------s-|--s--3-5-5-3-5-5\7~~~~-|-3-5-3-5-3-|-3\5-3\5-5---|
E|-\5--\5--\5--\5--\5--\5--\5~~~~~~~\-|-3\5-------------------|-----------|-----------3-|

02:06                                   rbp
e|--------------------------------------------|------------h--5--s---8-10-10--8-------|
B|-------------------------p--b-5-5--p---p----|-----------5-8---8\10------------10--s-|
G|----------------s--5-7--7-5-7-----7-5-7-5---|--h--5--5---------------------------9\-|
D|----------p----5\7------------------------5-|-5-7-----------------------------------|
A|----h--3-5-3-5------------------------------|---------------------------------------|
E|-3-3-5--------------------------------------|---------------------------------------|

02:13
   b  b  b  b  b b b b b   s
e|13-15--15--15--15--15-15-15-15-15~~~~~~\-|
B|-----------------------------------------|
G|-----------------------------------------|
D|-----------------------------------------|
A|-----------------------------------------|
E|-----------------------------------------|



02:43
e|-------------------|-------|
B|-----p-------------|-----b-|
G|-7--7-5--5---5-7-5-|-7-5-7-|
D|-----------9-------|-------|
A|-------------------|-------|
E|-------------------|-------|

02:49     rb
e|-------8-9-10--10-8------|
B|-10-10--------------10---|
G|-----------------------9-|
D|-------------------------|
A|-------------------------|
E|-------------------------|


OUTRO
******
02:57                        b  rb
e|----------------------------|-s---8-10-8---------8-8-10-8--------|
B|-----b------brp------b----s-|-\10--------10---10----------10-----|
G|---5-7-5-7--7--5-7-5-7-7--\-|---------------9----------------9-7-|
D|-7--------------------------|------------------------------------|
A|----------------------------|------------------------------------|
E|----------------------------|------------------------------------|


e|-------------------------------------p-----5--p------|--------|
B|---------brp---p------------b-5-b-5-8-5------8-5-----|-b--br--|
G|-7-5-7-5-7--5-7-5----5--7-5-7---7-------7--------7-5-|-7--7-5-|
D|------------------7----------------------------------|--------|
A|-----------------------------------------------------|--------|
E|-----------------------------------------------------|--------|

Find guitar tabs and chords

A B C D E F G H I J K L M N O P Q R S T U V W X Y Z #