Fotheringay by Fairport Convention

Fotheringay bass tab by Fairport Convention

Bass tabs

Tuning: EADG

0:08

G|------------7---7-------------------9---9-------------------------------------------------------|
D|--------------------7-----------------------9---7-----------7---7-------7-----------7-----------|
A|5-----------------------7-------------------------------------------7-------------------7-------|
E|------------------------------------------------------------------------------------------------|

0:14

G|------------5---7-------------------------------------------------------------------------------|
D|--------------------7---5-----------5---5-------3-----------3---3-------7---9---10------7---9---|
A|3-----------------------------------------------------------------------------------8-----------|
E|------------------------------------------------------------------------------------------------|

G|------------------------------------------------------------------------|
D|----------------9---8---7-----------7-----------5-------5---4---5---6---|
A|7-----------7---------------------------7---5-------5-------------------|
E|------------------------------------------------------------------------|

G|--------------------------------5---------------|
D|7-----------7---7-------7-----------7-----------|
A|--------------------7-------------------7---6---|
E|------------------------------------------------|

0:27

G|------------7---7-------------------9---9-----------------------9-----------9---9p7-------------|
D|--------------------7-----------------------9---7-----------7-------0---7-----------9---7-------|
A|5-----------------------7-------------------------------------------------------------------7---|
E|------------------------------------------------------------------------------------------------|

G|--------------------7-----------------------9---------------------------------------------------|
D|------------7---7-------------------9---9-------7-----------7---7-------7-----------7---7-------|
A|5-----------------------7-----------------------------------------------------------------------|
E|------------------------------------------------------------------------------------------------|

0:39

G|------------------------------------------------------------------------------------------------|
D|------------2---3---4---5-----------5---5-------3-----------3-----------7---9---10------7---9---|
A|3---------------------------------------------------------------3-------------------8-----------|
E|------------------------------------------------------------------------------------------------|

G|------------------------------------------------------------------------|
D|----------------9---8---7-----------7---7-------5-------5---4---5---6---|
A|7-----------7---------------------------------------5-------------------|
E|------------------------------------------------------------------------|

G|------------------------------------------------|
D|7-----------7---7-------7-----------7-----------|
A|--------------------7-------------------7---6---|
E|------------------------------------------------|

0:52

G|--------------------7-----------------------9-------------------9-----------9---9p7-------------|
D|------------7---7-------------------9---9-------7-----------7-------0---7-----------9---7-------|
A|5-----------------------7-------------------------------------------------------------------7---|
E|------------------------------------------------------------------------------------------------|

G|--------------------7-----------------------9-------------------9-------------------------------|
D|------------7---7-------------------9---9-------7-----------7-------0---7-----------7-----------|
A|5-----------------------7---------------------------------------------------------------7-------|
E|------------------------------------------------------------------------------------------------|

1:03

G|------------5---7-------------------------------------------------------------------------------|
D|--------------------7---5-----------5---5-------3-----------3---3-------7---9---10------7---9---|
A|3-----------------------------------------------------------------------------------8-----------|
E|------------------------------------------------------------------------------------------------|

G|------------------------------------------------------------------------|
D|----------------9---8---7-----------7-----------5-------5-\-4---5---6---|
A|7-----------7---------------------------7---5-------5-------------------|
E|------------------------------------------------------------------------|

G|------------------------------------------------|
D|7-----------7---7-------7-----------7-----------|
A|--------------------7-------------------7---6---|
E|------------------------------------------------|

1:16

G|------------7---7-------------------9---9-------------------------------------------------------|
D|--------------------7-----------------------9---7-----------7---7-------7-----------7-----------|
A|5-----------------------7---------------------------------------------------------------7---6---|
E|------------------------------------------------------------------------------------------------|

G|--------------------7-----------------------9-----------------------9---|
D|------------7---7-------------------9---9-------------------9---9-------|
A|5-----------------------7-----------------------7-----------------------|
E|------------------------------------------------------------------------|

G|----------------9-----------9---7h9p7------------|
D|7-----------7-------0---7------------9---7-------|
A|---------------------------------------------7---|
E|-------------------------------------------------|

1:30

G|------------------------------------7---7-----------------------7-----------7-------7-------7---|
D|----------------7-----------7---7-----------7---5-----------5-----------5-------7-------7-------|
A|5-----------5-----------5-------------------------------------------5---------------------------|
E|--------------------5---------------------------------------------------------------------------|

G|------------------------------------5---5-----------------------5-----------5-------5-------5---|
D|----------------5-----------5---5-----------5---3-----------3-------0---3-------5-------5-------|
A|3-----------3-------0---3-----------------------------------------------------------------------|
E|------------------------------------------------------------------------------------------------|

G|------------------------------------------------|
D|--------------------9---------------------------|
A|7-----------7---7-------7-----------7---7-------|
E|------------------------------------------------|

G|------------------------------------------------------------------------------------------------|
D|7-------9-------10--------------9---------------7-----------------------------------------------|
A|------------------------8---------------7-------------------------------------------------------|
E|------------------------------------------------------------------------------------------------|

1:50

G|----------------9-----------9---7h9p7------------------------------------------------7---7-------|
D|7-----------7-------0---7------------9---7-----------------------7-----------7---7-----------7---|
A|---------------------------------------------7---5-----------5-----------5-----------------------|
E|---------------------------------------------------------------------5---------------------------|

G|----7-------7-------7-------7-------7-------7---------------------------------------5---5-------|
D|5-------7-------7-------5-------7-------7-----------------------5-----------5---5-----------5---|
A|------------------------------------------------3-----------3-------0---3-----------------------|
E|------------------------------------------------------------------------------------------------|

2:02

G|----------------5---------------5-------5-------------------------------------------------------|
D|3-----------3-----------3-----------3-------5-------------------------------------------9---8---|
A|------------------------------------------------7-----------7---7-------7-----------7-----------|
E|------------------------------------------------------------------------------------------------|

G|--------------------------------------------------------------------------------------------------------|
D|7-------9-------10--------------9---------------7-------------------------------------------------------|
A|------------------------8---------------7---------------------------------------------------------------|
E|--------------------------------------------------------------------------------------------------------|

2:14

G|------------------------------------------------------------------------------------------------|
D|------------------------5-------------------5---3-------------------3---7-------------------7---|
A|3-------------------3---------------------------------------------------------------------------|
E|------------------------------------------------------------------------------------------------|

G|------------------------------------------------------------------------|
D|----------------9---8---7-----------------------5-----------------------|
A|7-----------7-----------------------------------------------------------|
E|------------------------------------------------------------------------|

G|------------------------------------------------------------------------------------------------|
D|7-------------------7---5-------------------5---4-------------------4---3-------------------3---|
A|------------------------------------------------------------------------------------------------|
E|------------------------------------------------------------------------------------------------|

G|------------------------|
D|7-----------7-----------|
A|----------------7---6---|
E|------------------------|

2:33

G|--------------------7-----------------------9-----------------------9---|
D|------------7---7-------------------9---9-------------------9---9-------|
A|5-----------------------7-----------------------7-----------------------|
E|------------------------------------------------------------------------|

G|----------------9-----------9-------------------------------------------------------7---7-------|
D|7-----------7-------0---7-------9---7-------7-------------------7-----------7---7-----------7---|
A|----------------------------------------7-------5-----------5-----------5-----------------------|
E|--------------------------------------------------------------------5---------------------------|

2:43

G|----------------7-----------7-------7-------7---------------------------------------5---5-------|
D|5-----------5-----------5-------7-------7-----------------------5-----------5---5-----------5---|
A|--------------------5---------------------------3-----------3-------0---3-----------------------|
E|------------------------------------------------------------------------------------------------|

G|----------------5-----------5-------5-------5---------------------------------------------------|
D|3-----------3-------0---3-------5-------5-------------------------------------------------------|
A|------------------------------------------------7-----------7---7-------7-----------7---7-------|
E|------------------------------------------------------------------------------------------------|

G|--------------------------------------------------------------------------|
D|7---------9----------10---------------------9-------------------------7---|
A|--------------------------------8-----------------------7-----------------|
E|--------------------------------------------------------------------------|

Find guitar tabs and chords

A B C D E F G H I J K L M N O P Q R S T U V W X Y Z #