Log in

One click and you are in

Login with Facebook Login with Google

Why sign up and log in

Guitar Tabs Explorer
Donald Fagen guitar chords for Out of the ghetto

Guitar chords with lyrics

Out Of The Ghetto


--------------------------------------
----0--3--0---------------------------
-2-----------2------------------------
----------------4--2--0---------------
-------------------------2--0--2-2----
-------------------------------------
            ^  ^  ^  ^
|Bm7       |      A chord diagramD MajorD  A chord diagramE MajorE |

( Repeat above two bars throughout verse )

You've come a long way baby,
From wealth and food stamp lines,
You're moving on up,
And leaving poverty behind.
You've had a good education,
And seen the best of the schools,
But when you take a drink,
The ghetto comes out of you.


           A chord diagramE MajorE
I took you out of the ghetto,
                        (I took you out of the ghetto)


           A chord diagramA majorA
I took you out of the ghetto,
                         (I took you out of the ghetto)


           A chord diagramC#m7C#m7
I took you out of the ghetto,
                          (I took you out of the ghetto)

---------------------------------------------
----0--3----0--------------------------------
-2--------------2----------------------------
----------------------4---2---0---------------
---------------------------------2---0--2-----
---------------------------------------------
But I could not get that get to out of you.

            ^  ^  ^  ^
|Bm7       |      A chord diagramD MajorD  A chord diagramE MajorE |

Solo on A chord diagramBm7Bm7


You're a foxy lady,
Your mamma had a beautiful child,
You're built like a brick house,
And that's no lie.



When we go to the disco,
You drive the fellas wild,
When you shake your booty,
Ghetto style.



           A chord diagramE MajorE
I took you out of the ghetto,
                        (I took you out of the ghetto)


           A chord diagramA majorA
I took you out of the ghetto,
                         (I took you out of the ghetto)


           A chord diagramC#m7C#m7
I took you out of the ghetto,
                          (I took you out of the ghetto)

---------------------------------------------
----0--3----0--------------------------------
-2--------------2----------------------------
----------------------4---2---0---------------
---------------------------------2---0--2-----
---------------------------------------------
But I could not get that get to out of you.

            ^  ^  ^  ^
|Bm7       |      A chord diagramD MajorD  A chord diagramE MajorE |


You're a hunk of raw sugar,
Got some real sweet hips,
Your love, your love, your love,
Is like a honey drip.
Your roots are in the mean streets,
Ghetto mamma,
Stay the same.

           A chord diagramE MajorE
I took you out of the ghetto,
                        (I took you out of the ghetto)


           A chord diagramA majorA
I took you out of the ghetto,
                         (I took you out of the ghetto)


           A chord diagramC#m7C#m7
I took you out of the ghetto,
                          (I took you out of the ghetto)





---------------------------------------------
----0--3----0--------------------------------
-2--------------2----------------------------
----------------------4---2---0---------------
---------------------------------2---0--2-----
---------------------------------------------
But I could not get that ghet to out of you.


            ^  ^  ^  ^
|Bm7       |      A chord diagramD MajorD  A chord diagramE MajorE |


Ghetto mamma, don't you change,
Ghetto mamma, stay the same.
Ghetto mamma, don't you change,
Ghetto mamma, stay the same.
Ghetto mamma, don't you change,
Ghetto mamma, stay the same.
Ghetto mamma, don't you change,
Ghetto mamma, stay the same.
Ghetto mamma, don't you change,
Ghetto mamma, stay the same.


Transcription and chart
Peter Kruger
casparus60@yahoo.com

Almost there ...

Sign in to get your own page with links to favourite songs and more. You are just one click away...

Login with Facebook Login with Google