Log in

One click and you are in

Login with Facebook Login with Google

Why sign up and log in

Guitar Tabs Explorer
Donald Fagen bass tabs for Maxine

Bass tabs

Maxine
                  Donald Fagen

Bass                               Donald Fagen

As played by Marcus Miller

In 6/8
Intro

8 Bars Piano Solo


Verse 1

|-------------|-------------|-------------|-------------|
|-------------|-------------|-------------|-------------|
|-4-------2---|-3-----------|-------------|-------------|
|-------0---3-|-------------|-5-----------|-4-----------|
 Q.  E E E  H.      H.      H.

|/2-----------|-------------|-------------|-------------|
|-------------|---------1-2-|-3-----------|-------------|
|-------------|-5-----------|-------------|-2-----1-----|
|-------------|-------------|-------1-----|-------------|
 H.      H    E E  Q.  Q.   Q.  Q.

|-------------|-------------|-------------|-------------|
|-------------|-------------|-------------|-------------|
|-0-----------|-------------|-2---------1-|(1)----0-----|
|---------0-0-|-2---------2-|-------------|-------------|
 H    E E  Q.  Q  E  Q.  Q  E  H.  H.

|-------------|-------------|-------------|---------------|
|-7---------9-|-----------8-|-7-----------|---------------|
|-------------|-7-----6-----|-------6-----|-5-----2---2-3-|
|-------------|-------------|-------------|---------------|
 Q.  Q  E  Q.  Q  E  H.  H.   H.  Q  S S

Verse 2

|-------------|-------------|-------------|-------------|
|-------------|-------------|-------------|-------------|
|-4-------2---|-3-----------|-------------|-------------|
|-------0---3-|-------------|-5-----------|-4-----------|
 Q.  E E E  H.      H.      H.

|/2-----------|-------------|-------------|-------------|
|-------------|---------1-2-|-3-----------|-------------|
|-------------|-5-----------|-------------|-2-----1-----|
|-------------|-------------|-------1-----|-------------|
 H.      H    E E  Q.  Q.   Q.  Q.

|-------------|-------------|-------------|-------------|
|-------------|-------------|-------------|-------------|
|-0-----------|-------------|-2---------1-|(1)----0-----|
|---------0-0-|-2---------2-|-------------|-------------|
 H    E E  Q.  Q  E  Q.  Q  E  H.  H.

|-------------|-------------|-------------|-------------|
|-7---------9-|-----------8-|-7-----------|-7-----3---3-|
|-------------|-7-----6-----|-------------|-------------|
|-------------|-------------|-------5-----|-------------|
 Q.  Q  E  Q.  Q  E  H.  H.   H.  Q  E


Bridge 1

|-------------|-------------|-------------|-------------|
|---------3-2-|-1-----------|-----------6-|-5-----------|
|-------------|-------------|-5---x-5-8---|-------------|
|-1-----------|-------------|-------------|-------3-----|
 H    E E  H.      Q. S S E E  Q.  Q.

|-------------|-------------|-------------|-------------|
|---------5-4-|-3-----------|-------------|-------------|
|-------------|-------------|-1-------1---|-------------|
|-3-----------|-------------|-----------1-|-0---------0-|
 H    E E  H.      H    E E  H    E E

|-------------|-------------|-------------|-------------|
|-1-------3-4-|-5-----3-----|-2-----------|---------7---|
|-------------|-------------|-------------|-------6---6-|
|-------------|-------------|-------0-----|-5-----------|
 H.   E E  Q.  Q.   Q.  Q.   Q.  E E E

|-------7-----|------/12----|-12----------|---------------|
|-------------|-5-----------|---------5---|---------------|
|-5-----------|-------------|-----------3-|-0-----2---2-3-|
|-------------|-------------|-------------|---------------|
 Q.  Q.   Q.  Q.   H    E E  Q.  Q  S S


Verse 3

|-------------|-------------|-------------|-------------|
|-------------|-------------|-------------|-------6-----|
|-4-------2---|-3---3-------|-------------|-------------|
|-------0---3-|---3---------|-5-----------|-4-----------|
 Q.  E E E  E E H     H.      Q.  Q.

|-------------|-------------|-------------|-------------|
|/7-----7---2-|-0-------1-2-|-3-----------|-------------|
|---------3---|-------------|-------------|-2-----1-----|
|-------------|-------------|-------1-----|-------------|
 Q.  E E E  H    E E  Q.  Q.   Q.  Q.

|-------------|-------------|-------------|-------------|
|-------------|-4-----------|-------------|-------------|
|-0---------0-|-------------|-2---------1-|(1)----0-----|
|---------0---|-------2-----|-------------|-------------|
 H    E E  Q.  Q.   Q.  Q  E  H.  H.

|-----------4-|-------------|-------------|-------------|
|-------------|-2-----3-----|-------5-----|-1-----0-----|
|-5-----------|-------------|-------------|-------------|
|-------------|-------------|-3-----------|-------------|
 Q.  Q  E  Q.  Q.   H.  H.   H.  H.


Solo

|-------------|-------------|-------------|-----------------|
|---------3-2-|-1---------1-|-----------6-|-5---x-5-5-----5-|
|-------------|---------1---|-5-----5-8---|-----------------|
|-1-----------|-------------|-----x-------|-----------3-----|
 H    E E  H    E E  Q. S S E E  Q. S S S Q  E

|-------------|-------------|-------------|-------------|
|---------5-4-|-3-----------|-------------|-------2---1-|
|-------------|-------------|-1-------1---|-------------|
|-3-----------|-------1-----|-----------1-|-0-----------|
 H    E E  Q.  Q.   H    E E  H   Q  E

|-------------|-------------|-------------|---------------|
|(1)------3-4-|-5-----3-----|/2-----------|-----------7---|
|-------------|-------------|-------------|---------6---6-|
|-------------|-------------|-------0-----|-5-----x-------|
 H.   E E  Q.  Q.   Q.  Q.   Q. S S E E E

|-------7-----|-------------|-------------|---------------|
|-----7-------|-5-----5-----|-------------|---------------|
|-5-----------|-----x-------|-3-------3---|-0-----2-------|
|-------------|-------------|-----------3-|-----0---------|
 Q.S S Q.   Q.S S Q.   H    E E  Q.S S Q.


Verse 4

|-------------|-------------|-------------|-------------|
|-------------|-------------|-------------|-------6-----|
|-4-------2---|-3---3-------|-------------|-------------|
|-------0---3-|---3---------|-5-----------|-4-----------|
 Q.  E E E  E E H     H.      Q.  Q.

|-------------|-------------|-------------|-------------|
|/7-----7---2-|-0-------1-2-|-3-----------|-------------|
|---------3---|-------------|-------------|-2-----1-----|
|-------------|-------------|-------1-----|-------------|
 Q.  E E E  H    E E  Q.  Q.   Q.  Q.

|-------------|-------------|-------------|-------------|
|-----------2-|-4-----------|-------------|-------------|
|-0-------3---|-------------|-2---------1-|(1)----0-----|
|-------------|-------2-----|-------------|-------------|
 H    E E  Q.  Q.   Q.  Q  E  H.  H.

|-----------4-|-------------|-------------|-------------|
|-------------|-2-----1-----|-3-----------|-------------|
|-5-----------|-------------|-----------1-|(1)----6---6-|
|-------------|-------------|-------------|-------------|
 Q.  Q  E  Q.  Q.   H    E E  H.  Q  E

|-------------|-------------||
|-------------|-------------||
|-------------|-------------||
|-4-3---------|(3)----------||
 E H.   E  H.


Key to rhythm notations:

W - Whole Note/Semi-Brieve
H - Half Note/Minim
Q - Quarter Note/Crotchet    Q. - Dotted Quarter Note
E - Eight Note/Quaver      E. - Dotted Eight Note
S - Sixteenth Note/Semi-Quaver S. - Dotted Sixteenth Note

Almost there ...

Sign in to get your own page with links to favourite songs and more. You are just one click away...

Login with Facebook Login with Google