Log in

One click and you are in

Login with Facebook Login with Google

Why sign up and log in

Guitar Tabs Explorer
Donald Fagen bass tabs for Igy

Bass tabs

I.G.Y.
                  Donald Fagen

Bass                               Donald Fagen

As played by Anthony Jackson

    ___
   | 3 |
E E = Q  E
Intro

||------------------|-----------------|-----------------|------------------||
||o-----------------|-----------------|-2---------------|-4---------------o||
||o-----------------|/4---------------|-----------------|-----------------o||
||--4---------------|-----------------|-----------------|---------2--------||
  W         W         W         H    H

                                     x4
||------------------|-----------------|-----------------|------------------||
||o---------6---4---|-----------------|-2---------------|-4-4-----4-4-----o||
||o---------------6-|-------2/6---4---|---2-------------|-----------------o||
||--------4---------|-----------------|-----0-----------|-----2-2-----2-4--||
  Q.  E Q  E E  Q.  E Q  Q   E E H.      E E E E E E E E

|-----------------|-----------------|
|-4-4-----1---1-3-|-3-------1---3---|
|-----------1-----|-----------------|
|-----2-2---------|-------1---------|
 E E E E E E E E  Q.  E Q  Q


Verse 1

|-----------------|-----------------|-----------------|-----------------|
|-3-------1---3---|---------6-------|-3-------1---3---|-----------------|
|-----------------|-4-----4-----4---|-----------------|-1-----1---------|
|-------1---------|-----------------|-------1---------|---------5-5-3-3-|
 Q.  E Q  Q   Q.  E Q  Q   Q.  E Q  Q   Q.  E E E E E

|-----------------|-----------------|-----------------|---x-------x-----|
|-3-------1---3---|---------6-------|---------5-------|-----------------|
|-----------------|-4-----4-----4---|-3-----3-----3---|-1-----1-1-------|
|-------1---------|-----------------|-----------------|-----------------|
 Q.  E Q  Q   Q.  E Q  Q   Q.  E Q  Q   Q S S E Q S E.

Pre-Chorus 1

|-----------------|-----------------|-----------------|-----------------|
|---x-------x-----|---x-------x-----|---x-------x-----|-----x-----x---x-|
|-----------------|-----------------|-----------------|-----------------|
|-2---2---2---2---|-0---0---0---0---|-2---2---2---2---|-2-----2-2---2---|
 E E E E E E E E  E E E E E E E E  E E E E E E E E  Q  E E E E E E
                                 ___
                                | 3 |
|-----------------|-----------------|-----------------|-------------------|
|---x-------x-----|---x-------x-----|---x-------x-----|-------------2-5-6-|
|-----------------|-----------------|-----------------|-----------2-------|
|-2---2---2---2---|-1---1---1---1---|-2---2---2---2---|-0---0---0---------|
 E E E E E E E E  E E E E E E E E  E E E E E E E E  E E E E E E E E E


Chorus 1

||------------------|-----------------|-----------------|------------------||
||o---------6---4---|-----------------|-2---------------|-4-4-----4-4-----o||
||o---------------6-|-------2/6---4---|---2-------------|-----------------o||
||--------4---------|-----------------|-----0-----------|-----2-2-----2-4--||
  Q.  E Q  E E  Q.  E Q  Q   E E H.      E E E E E E E E

Interlude 1

||------------------|-----------------|-----------------|------------------||
||o---------6---4---|-----------------|-2---------------|-4-4-----4-4-----o||
||o---------------6-|-------2/6---4---|---2-------------|-----------------o||
||--------4---------|-----------------|-----0-----------|-----2-2-----2-4--||
  Q.  E Q  E E  Q.  E Q  Q   E E H.      E E E E E E E E

|-----------------|-----------------|
|-4-4-----1---1-3-|-3-------1---3---|
|-----------1-----|-----------------|
|-----2-2---------|-------1---------|
 E E E E E E E E  Q.  E Q  Q


Verse 2

|-----------------|-----------------|-----------------|-----------------|
|-3-------1-1-3---|---------6-------|-3-------1---3---|-----------------|
|-----------------|-4-----4-----4---|-----------------|-1-----1---------|
|-------1---------|-----------------|-------1---------|---------5-5-3-3-|
 Q.  E E E Q   Q.  E Q  Q   Q.  E Q  Q   Q.  E E E E E

|-----------------|-----------------|-----------------|-----------x-----|
|---------1---3---|---------6-------|---------5-------|-----------------|
|-----------------|-4-----4-----4---|-3-----3-----3---|-1-----1-1-------|
|-1-----1---------|-----------------|-----------------|-----------------|
 Q.  E Q  Q   Q.  E Q  Q   Q.  E Q  Q   Q.  E Q S E.


Pre-Chorus 2


|-----------------|-----------------|-----------------|-----------------|
|---x-------x-----|---x-------x-----|---x-------x-----|-----x-----x---x-|
|-----------------|-----------------|-----------------|-----------------|
|-2---2---2---2---|-0---0---0---0---|-2---2---2---2---|-2-----2-2---2---|
 E E E E E E E E  E E E E E E E E  E E E E E E E E  Q  E E E E E E
                                 ___
                                | 3 |
|-----------------|-----------------|-----------------|-------------------|
|---x-------x-----|---x-------x-----|---x-------x-----|-------------2-5-6-|
|-----------------|-----------------|-----------------|-----------2-------|
|-2---2---2---2---|-1---1---1---1---|-2---2---2---2---|-0---0---0---------|
 E E E E E E E E  E E E E E E E E  E E E E E E E E  E E E E E E E E E


Chorus 2

||------------------|-----------------|-----------------|------------------||
||o---------6---4---|-----------------|-2---------------|-4-4-----4-4-----o||
||o---------------6-|-------2/6---4---|---2-------------|-----------------o||
||--------4---------|-----------------|-----0-----------|-----2-2-----2-4--||
  Q.  E Q  E E  Q.  E Q  Q   E E H.      E E E E E E E E

Interlude 2

||------------------|-----------------|-----------------|------------------||
||o---------6---4---|-----------------|-2---------------|-4-4-----4-4-----o||
||o---------------6-|-------2/6---4---|---2-------------|-----------------o||
||--------4---------|-----------------|-----0-----------|-----2-2-----2-4--||
  Q.  E Q  E E  Q.  E Q  Q   E E H.      E E E E E E E E

|-----------------|-----------------|
|-4-4-----1---1-3-|---3-----1---3---|
|-----------1-----|-----------------|
|-----2-2---------|-------1---------|
 E E E E E E E E  E E E E Q  Q


Solo

|-----------------|-----------------|-----------------|-----------------|
|(3)------1-1-3---|---------6-------|-3-------1---3---|-----------------|
|-----------------|-4-----4-----4---|-----------------|-1-----1---------|
|-------1---------|-----------------|-------1---------|---------5-5-3-3-|
 Q.  E E E Q   Q.  E Q  Q   Q.  E Q  Q   Q.  E E E E E

|-----------------|-----------------|-----------------|-----------------|
|-3-------1---3---|---------6-------|---------5-------|-----------------|
|-----------------|-4-----4-----4---|-3-----3-----3---|-1-----1-1-------|
|-------1---------|-----------------|-----------------|-----------------|
 Q.  E Q  Q   Q.  E Q  Q   Q.  E Q  Q   Q.  E H

|---6-------------|
|-----------3-----|
|-4---4-----------|
|---------1---1---|
 E E Q  E E Q


Pre-Chorus 3


|-----------------|-----------------|-----------------|-----------------|
|---x-------x-----|---x-------x-----|---x-------x-----|-----x-----------|
|-----------------|-----------------|-----------------|-----------------|
|-2---2---2---2---|-----0---0---0---|-2---2---2---2---|-2-----2-2---2---|
 E E E E E E E E  E E E E E E E E  E E E E E E E E  Q  E E E E Q
                      ___
                     | 3 |
|-----------------|-----------------|-------------------|-----x--/11-/11--|
|---x-------x-----|-----------x-----|---------2---------|-----------------|
|-----------------|-----------------|-------2---6-6-----|-4-----4---x-----|
|-2---2---2---2---|-1---1---1---1---|-0-------------4---|-----------------|
 E E E E E E E E  E E E E E E E E  Q.  E E E E Q   Q  E E E E Q

|-----------------|-----------------|-----------------|-----------------|
|-----------x-----|---x-------x-----|---x-------x-----|---x-------x-----|
|-----------------|-----------------|-----------------|-----------------|
|-2---2---2---2---|-----0---0---0---|-2---2---2---2---|-0---0---0---0---|
 E E E E E E E E  E E E E E E E E  E E E E E E E E  E E E E E E E E

|-----------------|-----------------|-----------------|-----------------|
|---x-------------|---x-------x-----|-----------------|-----------x-----|
|-----------------|-----------------|-----------------|-----------------|
|-2---2---2---2---|-1---1---1---1---|-0---0---0---0---|-0---0---0---0---|
 E E E E E E E E  E E E E E E E E  E E E E E E E E  E E E E E E E E

      ___
     | 3 |
|-------------------|
|-------------2-5-6-|
|-----------2-------|
|-0---0---0---------|
 E E E E E E E E E


Chorus 3
                                     x4
||------------------|-----------------|-----------------|------------------||
||o---------6---4---|-----------------|-2---------------|-4-4-----4-4-----o||
||o---------------6-|-------2/6---4---|---2-------------|-----------------o||
||--------4---------|-----------------|-----0-----------|-----2-2-----2-4--||
  Q.  E Q  E E  Q.  E Q  Q   E E H.      E E E E E E E E


Outro
                              Repeat to fade
||------------------|-----------------|-----------------|------------------||
||o---------6---4---|-----------------|-2---------------|-4-4-----4-4-----o||
||o---------------6-|-------2/6---4---|---2-------------|-----------------o||
||--------4---------|-----------------|-----0-----------|-----2-2-----2-4--||
  Q.  E Q  E E  Q.  E Q  Q   E E H.      E E E E E E E E


Key to rhythm notations:

W - Whole Note/Semi-Brieve
H - Half Note/Minim
Q - Quarter Note/Crotchet    Q. - Dotted Quarter Note
E - Eight Note/Quaver      E. - Dotted Eight Note
S - Sixteenth Note/Semi-Quaver S. - Dotted Sixteenth Note

Almost there ...

Sign in to get your own page with links to favourite songs and more. You are just one click away...

Login with Facebook Login with Google