Guitar Tabs Explorer
Fader bass tabs for Laundrette

Bass tabs

  • Tuning: Standard tuning
  • Difficulty: Beginner
Tabbed by: bassm99
E-mail: [email protected]


Tuning: E, A, D, G

`Laundrette` from the album `First Light` (2017)
Written by Neil Arthur/Benge
Intro:

G|--------------------------------------------------------------------------|
D|--------------------------------------------------------------------------|
A|--------------------------------------------------------------------------|
E|--6-6-6-6-6-6-6-6-(x12)---------------------------------------------------|

G|--------------------------------------------------------------------------|
D|--------------------------------------------------------------------------|
A|--------------------------------------------------------------------------|
E|--6-6-6-6-6-6-6-6--6-6-6-6-6-6-6-6--2-2-2-2-2-2-2-2--2-2-2-2-2-2-2-2-(x2)-|


Vocal Section: (Play 16 Times)

G|--------------------------------------------------------------------------|
D|--------------------------------------------------------------------------|
A|--------------------------------------------------------------------------|
E|--6-6-6-6-6-6-6-6--6-6-6-6-6-6-6-6--2-2-2-2-2-2-2-2--2-2-2-2-2-2-2-2------|


End:

G|--------------------------------------------------------------------------|
D|--------------------------------------------------------------------------|
A|--------------------------------------------------------------------------|
E|--2-2-2-2-2-2-2-2-(x6)---2-(x1)-------------------------------------------|