Log in

One click and you are in

Login with Facebook Login with Google

Why sign up and log in

Guitar Tabs Explorer
Fader bass tabs for First light

Bass tabs with lyrics

  • Tuning: Standard tuning
  • Difficulty: Beginner
Tabbed by: bassm99
E-mail: [email protected]


Tuning: E, A, D, G
Intro: (Main Bass - Play Twice)

G|--------------------------------------------------------------------------|
D|--------------------------------------------------------------------------|
A|--5-5-5-5-5-5-5-5--5-5-5-5-5-5-5-5--5-5-5-5-5-5-5-5--8-8-8-8-8-8-8-8------|
E|--------------------------------------------------------------------------|


Verse: (Main Bass - Play 11 Times)

G|--------------------------------------------------------------------------|
D|--------------------------------------------------------------------------|
A|--5-5-5-5-5-5-5-5--5-5-5-5-5-5-5-5--5-5-5-5-5-5-5-5--8-8-8-8-8-8-8-8------|
E|--------------------------------------------------------------------------|


Verse: (Second Bass - Play 12 Times)

G|--------------------------------------------------------------------------|
D|--------------------------------------------------------------------------|
A|--------------------------------------------------------------------------|
E|--10----------------------------------------------------------------------|


Chorus (Main Bass - 4 Times)

G|--------------------------------------------------------------------------|
D|--------------------------------------------------------------------------|
A|--5-5-5-5-5-5-5-5--5-5-5-5-5-5-5-5--5-5-5-5-5-5-5-5--8-8-8-8-8-8-8-8------|
E|--------------------------------------------------------------------------|
Chorus: (Second Bass - Play 4 Times)

G|--------------------------------------------------------------------------|
D|--------------------------------------------------------------------------|
A|--------------------------------------------------------------------------|
E|--10----------------------------------------------------------------------|

Repeat Verse: (Main Bass - Play 5 Times)
Repeat Verse: (Second Bass - Play 6 Times)

Repeat Chorus: (Main Bass - Play 4 Times)
Repeat Chorus: (Second Bass - Play 4 Times)


Verse: (Main Bass)

G|--------------------------------------------------------------------------|
D|--------------------------------------------------------------------------|
A|--5-5-5-5-5-5-5-5--5-5-5-5-5-5-5-5--5-5-5-5-5-5-5-5--8-8-8-8-8-8-8-8-(x3)-|
E|--------------------------------------------------------------------------|

G|--------------------------------------------------------------------------|
D|--------------------------------------------------------------------------|
A|--5-5-5-5-5-5-5-5--5-5-5-5-5-5-5-5--5-5-5-5-(x1)--------------------------|
E|--------------------------------------------------------------------------|


Verse: (Second Bass - Play 3 Times)

G|--------------------------------------------------------------------------|
D|--------------------------------------------------------------------------|
A|--------------------------------------------------------------------------|
E|--10----------------------------------------------------------------------|

Repeat Chorus: (Main Bass - Play 3 Times)
Repeat Chorus: (Second Bass - Play 4 Times)


Bridge: (Play Twice)

G|--------------------------------------------------------------------------|
D|--------------------------------------------------------------------------|
A|--------------------------------------------------------------------------|
E|--10----------------------------------------------------------------------|

Repeat Verse: (Main Bass - Play 4 Times)
Repeat Verse: (Second Bass - Play last 2 lines)

Repeat Chorus: (Main Bass - Play 9 Times)
Repeat Chorus: (Second Bass - Play 10 Times)

First Light bass tab

Fader bass tabs for First light `First Light` from the album `First Light` (2017). Written by Neil Arthur/Benge.

Almost there ...

Sign in to get your own page with links to favourite songs and more. You are just one click away...

Login with Facebook Login with Google