Log in

One click and you are in

Login with Facebook Login with Google

Why sign up and log in

Guitar Tabs Explorer
Fader bass tabs for Check the power

Bass tabs

  • Tuning: Standard tuning
  • Difficulty: Beginner
Tabbed by: bassm99
E-mail: [email protected]


Tuning: E, A, D, G

Bass Starts: 0:18
Verse: (Play 16 Times)

G|--------------------------------------------------------------------------|
D|--------------------------------------------------------------------------|
A|--------------------------------------------------------------------------|
E|--8-8-8---8-8-------------------------------------------------------------|


Chorus:

G|--------------------------------------------------------------------------|
D|--------------------------------------------------------------------------|
A|--6-6-6---8-8----8-8-8---10---11-11-(x3)----------------------------------|
E|--------------------------------------------------------------------------|

G|--------------------------------------------------------------------------|
D|--------------------------------------------------------------------------|
A|--6-6-6---8-8----8-8-8---10---11-11--12-(x1)------------------------------|
E|--------------------------------------------------------------------------|

First Bridge:

G|--------------------------------------------------------------------------|
D|--------------------------------------------------------------------------|
A|--8-8-8-(x1)----8-8-8----8-8-(x7)-----------------------------------------|
E|--------------------------------------------------------------------------|

Repeat Verse: (Play 8 Times)

Repeat Chorus:

Bass Stops: (1:57 - 2:01)

Second Bridge: (Play 16 Times)

G|--------------------------------------------------------------------------|
D|--------------------------------------------------------------------------|
A|--------------------------------------------------------------------------|
E|--8-8-8---8-8-------------------------------------------------------------|
Chorus:

G|--------------------------------------------------------------------------|
D|--------------------------------------------------------------------------|
A|--6-6-6---8-8----8-8-8---10---11-11-(x3)----------------------------------|
E|--------------------------------------------------------------------------|

G|--------------------------------------------------------------------------|
D|--------------------------------------------------------------------------|
A|--6-6-6---8-8----8-8-8---10---11-11--12-(x1)------------------------------|
E|--------------------------------------------------------------------------|

G|--------------------------------------------------------------------------|
D|--------------------------------------------------------------------------|
A|--8-8----8-8-8---10---11-11-(x1)------------------------------------------|
E|--------------------------------------------------------------------------|

G|--------------------------------------------------------------------------|
D|--------------------------------------------------------------------------|
A|--6-6-6---8-8----8-8-8---10---11-11-(x2)----------------------------------|
E|--------------------------------------------------------------------------|

G|--------------------------------------------------------------------------|
D|--------------------------------------------------------------------------|
A|--6-6-6---8-8----8-8-8---10---11-11--12-(x1)------------------------------|
E|--------------------------------------------------------------------------|


Ending: (Play 8 Times)

G|--------------------------------------------------------------------------|
D|--------------------------------------------------------------------------|
A|--------------------------------------------------------------------------|
E|--8-8-8---8-8-------------------------------------------------------------|

Bass Stops: (3:23)

Check The Power bass tab

Fader bass tabs for Check the power `Check The Power` from the album `First Light` (2017). Written by Neil Arthur/Benge.

Almost there ...

Sign in to get your own page with links to favourite songs and more. You are just one click away...

Login with Facebook Login with Google