Log in

One click and you are in

Login with Facebook Login with Google

Why sign up and log in

Guitar Tabs Explorer
Fader bass tabs for 3d carpets

Bass tabs

  • Tuning: Standard tuning
  • Difficulty: Beginner
Tabbed by: bassm99
E-mail: [email protected]


Tuning: E, A, D, G

`3D Carpets` from the album `First Light` (2017)
Written by Neil Arthur/Benge

Bass Starts: 0:06
Intro: (Play Twice)

G|--------------------------------------------------------------------------|
D|--------------------------------------------------------------------------|
A|-------10---------8--7----------------------------------------------------|
E|--5----------8------------------------------------------------------------|


Verse: (Play 4 Times)

G|--------------------------------------------------------------------------|
D|--------------------------------------------------------------------------|
A|-------10---------8--7----------------------------------------------------|
E|--5----------8------------------------------------------------------------|


Chorus:

G|--------------------------------------------------------------------------|
D|--------------------------------------------------------------------------|
A|--5----8----5----8----5----8--7-------------------------------------------|
E|--------------------------------------------------------------------------|

Repeat Verse:

Bass Stops: (1:20 - 1:25)

Repeat Chorus:

Repeat Verse:


Chorus:

G|--------------------------------------------------------------------------|
D|--------------------------------------------------------------------------|
A|--5----8----5----8----5----8----5----8--7---------------------------------|
E|--------------------------------------------------------------------------|


Repeat Verse:


Bass Stops: (2:50)


Song Ends: (3:07)

Almost there ...

Sign in to get your own page with links to favourite songs and more. You are just one click away...

Login with Facebook Login with Google