Log in

One click and you are in

Login with Facebook Login with Google

Why sign up and log in

Guitar Tabs Explorer
Factory 81 tabs for Nanu

Guitar tabs

Tuning: C,G,C,G,B,E

;Intro
|------------------------|------------------------------------|
|------------------------|------------------------------------|
|------------------------|------------------------------------|
|------------------------|------------------------------------|
|----555-------888-666---|----555-----------------------------|
|-000---666-777----------|-000---666-777----------------------|
  pm

;Riff 1
|-------------------------------------------------------------|
|-------------------------------------------------------------|
|-------------------------------------------------------------|
|-0-0-0-7-7-7-------------10-10-8-8-8-------------------------|
|-0-0-0-5-5-5-6-6-6-7-7-7-8--8--6-6-6-------------------------|
|-0-0-0-------6-6-6-7-7-7-------------------------------------|

;Riff 2
|-------------------------------------------------------------|
|-------------------------------------------------------------|
|-------------------------------------------------------------|
|-------------------------------------------------------------|
|-----5-7-----------------------------------------------------|
|-6-6---7-----------------------------------------------------|

;Riff 3
|-------------------------------------------------------------|
|-------------------------------------------------------------|
|-------------------------------------------------------------|
|-------------------------------------------------------------|
|-----5-7-1---------------------------------------------------|
|-6-6---7-1---------------------------------------------------|

;Riff 4
|-------------------------------------------------------------|
|-------------------------------------------------------------|
|-------------------------------------------------------------|
|-------------------------------------------------------------|
|-----5-7-000-000-000-----------------------------------------|
|-6-6---7-000-000-000-----------------------------------------|
          p.m
;Riff 5
|-------------------------------------------------------------|
|-------------------------------------------------------------|
|-------------------------------------------------------------|
|-----7-888---6-33333333--------------------------------------|
|-00--5-666---6-33333333--------------------------------------|
|-00----------6-33333333--------------------------------------|

;Riff 6
|-------------------------------------------------------------|
|-------------------------------------------------------------|
|-------------------------------------------------------------|
|-----7-8886--------------------------------------------------|
|-00--5-6666--------------------------------------------------|
|-00-------6--------------------------------------------------|

;Riff 7
|-------------------------------------------------------------|
|-------------------------------------------------------------|
|-------------------------------------------------------------|
|-333-1111----------------------------------------------------|
|-333-1111----------------------------------------------------|
|-333-1111----------------------------------------------------|

ⓘ Guitar tab for 'Nanu' by Factory 81, a nu metal band

Almost there ...

Sign in to get your own page with links to favourite songs and more. You are just one click away...

Login with Facebook Login with Google