Log in

One click and you are in

Login with Facebook Login with Google

Why sign up and log in

Guitar Tabs Explorer
Fact guitar tabs for A fact of life

Guitar tabs with lyrics

I dunno about everyone else, but i've been waiting a hell of a long time for a tab for
song, but i 'THINK' ive cracked the basics, it's not 100% let me just clear that up now
a base for anyone else who wants a go at trying, most of its done by ear and watching
on youtube of douches who didn't post the tabs or give any hint of how to play.
Tuning - Drop A chord diagramD MajorD


Intro / Main riff

|-----------------------------------|------------------------|
|-----------------------------------|------------------------|
|------------------7-7-7-7-7-7-7-7--|--7----5----------------|
|--8-8-8-8-7-7-7-7-7-7-7-7-7-7-7-7--|--7-x4-5-x4-(2nd time)--|
|--8-8-8-8-7-7-7-7-5-5-5-5-5-5-5-5--|--5----3----------------|
|--8-8-8-8-7-7-7-7------------------|------------------------|


Verse

|--------------------------------------|
|--------------------------------------|
|--------------------------------------| Guitar 1 (2nd time replace the 1st
|------10-7----7-----------------------| 10 on the A chord diagramA majorA string with a 7 on the
|--8-8-------8----8-8-10-8-8-7-8-10-7--| A chord diagramD MajorD string)
|--------------------------------------|

|----------------------7*--|
|--------22----------------|
|-----19-----OR-----7*-----| Guitar 2 w/delay.
|--19------------7*--------|
|--------------------------|
|--------------------------|

Clean part

|--------------------------------------|
|--------------------------------------|
|--10-10~--10-10~--10/12-10-10~--5-5~--|
|--10-10~--10-10~--10/12-10-10~--5-3~--|
|--------------------------------------|
|--------------------------------------|

repeat verse riff (clean) then playing the main/chorus riff til end.

I repeat again this will NOT be 100% accurate, just a base on which over people can

Almost there ...

Sign in to get your own page with links to favourite songs and more. You are just one click away...

Login with Facebook Login with Google