Log in

One click and you are in

Login with Facebook Login with Google

Why sign up and log in

Guitar Tabs Explorer
Face To Face bass tabs for Shoot the moon

Bass tabs

Verse:

G|---------------------------------------------------------------------------|
D|---------------------------------------------------------------------------|
A|--2-----4---7--------------------------------------------------------------|
E|-----2---------------------------------------------------------------------|

G|---------------------------------------------------------------------------|
D|---------------------------------------------------------------------------|
A|--2-----4---11--9----------------------------------------------------------|
E|-----2---------------------------------------------------------------------|

Pre-Chorus:

G|---------------------------------------------------------------------------|
D|---------------------------------------------------------------------------|
A|--4--7-----9--7------------------------------------------------------------|
E|--------7------------------------------------------------------------------|

G|---------------------------------------------------------------------------|
D|---------------------------------------------------------------------------|
A|--4--7-----9--7------------------------------------------------------------|
E|--------7------------------------------------------------------------------|


Chorus:

G|---------------------------------------------------------------------------|
D|---------------------------------------------------------------------------|
A|--2--9-----11--9-----------------------------------------------------------|
E|--------9------------------------------------------------------------------|

G|---------------------------------------------------------------------------|
D|---------------------------------------------------------------------------|
A|--2--9-----11--9-----------------------------------------------------------|
E|--------9------------------------------------------------------------------|


Bridge:

G|---------------------------------------------------------------------------|
D|---------------------------------------------------------------------------|
A|-------7-------9---11---7---4---7------------------------------------------|
E|---4-------7------------------------2--------------------------------------|


Solo:

G|---------------------------------------------------------------------------|
D|---------------------------------------------------------------------------|
A|--2---9-------11---9-------------------------------------------------------|
E|----------9----------------------------------------------------------------|

G|---------------------------------------------------------------------------|
D|---------------------------------------------------------------------------|
A|--2---9-------11---9-------------------------------------------------------|
E|----------9----------------------------------------------------------------|


Pre-Chorus:

G|---------------------------------------------------------------------------|
D|---------------------------------------------------------------------------|
A|--4--7-----9--7------------------------------------------------------------|
E|--------7------------------------------------------------------------------|

G|---------------------------------------------------------------------------|
D|---------------------------------------------------------------------------|
A|--4--7-----9--7------------------------------------------------------------|
E|--------7------------------------------------------------------------------|


Chorus:

G|---------------------------------------------------------------------------|
D|---------------------------------------------------------------------------|
A|--2--9-----11--9-----------------------------------------------------------|
E|--------9------------------------------------------------------------------|

G|---------------------------------------------------------------------------|
D|---------------------------------------------------------------------------|
A|--2--9-----11--9-----------------------------------------------------------|
E|--------9------------------------------------------------------------------|


Outro:


this is not 100% as the bassist throws alot of fills into the pre chorus and its different everytime they
ⓘ Bass guitar tab for 'Shoot The Moon' by Face To Face, a punk rock band formed in 1991 from Victorville, CA

Almost there ...

Sign in to get your own page with links to favourite songs and more. You are just one click away...

Login with Facebook Login with Google