Log in

One click and you are in

Login with Facebook Login with Google

Why sign up and log in

Guitar Tabs Explorer
Face To Face bass tabs for Double crossed

Bass tabs

  • Difficulty: Intermediate
Tuning: Standard (E A D G)


Intro:

G|---------------------------------------------------------------------------|
D|---------------------------------------------------------------------------|
A|--3-(x8)--0-(x8)--8-(x8)--7h8--8-(x6)--------------------------------------|
E|---------------------------------------------------------------------------|

G|---------------------------------------------------------------------------|
D|---------------------------------------------------------------------------|
A|--3-(x8)--0-(x8)--8-(x8)--7h8--8-(x6)--------------------------------------|
E|---------------------------------------------------------------------------|

G|---------------------------------------------------------------------------|
D|--------9-------9-------12-------10-9--------------------------------------|
A|--10-10---10-10---10-10----10-10-------------------------------------------|
E|---------------------------------------------------------------------------|

G|---------------------------------------------------------------------------|
D|------7-----7-----10-----8-7-----------------------------------------------|
A|--8-8---8-8---8-8----8-8---------------------------------------------------|
E|---------------------------------------------------------------------------|

G|---------------------------------------------------------------------------|
D|---------------------------------------------------------------------------|
A|--3-(x8)--0-(x8)--8-(x8)--7h8--8-(x6)--------------------------------------|
E|---------------------------------------------------------------------------|

Fill :

G|---------------------------------------------------------------------------|
D|---------------------------------------------------------------------------|
A|--3/-----------------------------------------------------------------------|
E|---------------------------------------------------------------------------|

Verse 1:

G|---------------------------------------------------------------------------|
D|---------------------------------------------------------------------------|
A|--5-(x16)--3-(x8)--2h3-3-(x6)--5-(x8)--8-8-7-7-5-5-3-2---------------------|
E|---------------------------------------------------------------------------|

G|---------------------------------------------------------------------------|
D|---------------------------------------------------------------------------|
A|--3-(x8)--0--0-0-----------------------------------------------------------|
E|------------------3--3-3---------------------------------------------------|


Pre-Chorus:

G|-----------------12--------------12-------------9--------------------------|
D|-----------10-10----10-(x5)--9-9----9-(x5)--7-7---7-(x5)--------12---------|
A|--8-(x16)-------------------------------------------------10-10----10-(x5)-|
E|---------------------------------------------------------------------------|

G|---------------------------------------------------------------------------|
D|------10-------------10----------------------------------------------------|
A|--8-8----8-(x5)--7-7----7-(x5)---------------------------------------------|
E|---------------------------------------------------------------------------|

G|---------------------------------------------------------------------------|
D|-------------------------------------------9----12----9--------------------|
A|--------------2-2-3-3-5/10--10-(x8)--10-10---10----10----------------------|
E|--3-(x8)--3-3--------------------------------------------------------------|


Chorus 1:

G|---------------------------------------------------------------------------|
D|---------------------------------------------------------------------------|
A|--3-(x8)--0-(x8)--8-(x8)--7h8--8-(x6)--------------------------------------|
E|---------------------------------------------------------------------------|

G|---------------------------------------------------------------------------|
D|---------------------------------------------------------------------------|
A|--3-(x8)--0-(x8)--8-(x8)--7h8--8-(x6)--------------------------------------|
E|---------------------------------------------------------------------------|

G|---------------------------------------------------------------------------|
D|--------9-------9-------12-------10-9--------------------------------------|
A|--10-10---10-10---10-10----10-10-------------------------------------------|
E|---------------------------------------------------------------------------|

G|---------------------------------------------------------------------------|
D|------7-----7-----10-----8-7-----------------------------------------------|
A|--8-8---8-8---8-8----8-8---------------------------------------------------|
E|---------------------------------------------------------------------------|

G|---------------------------------------------------------------------------|
D|---------------------------------------------------------------------------|
A|--3-(x8)--0-(x8)--8-(x12)--8-0-3-4-----------------------------------------|
E|---------------------------------------------------------------------------|


*Repeat Verse
*Repeat Pre-Chorus


Bridge:

G|---------------------------------------------------------------------------|
D|----------\8-8-7-7-7-5-5-3-3------------\10-10-9-9-7-7-5-5-----------------|
A|---------------------------------------------------------------------------|
E|--1-(x5)------------------------3-(x5)-------------------------------------|

|----------------------------------------------------------------------------|
D|----------\8-8-7-7-7-5-5-3-3------------\10-10-9-9-12-12-9-9---------------|
A|---------------------------------------------------------------------------|
E|--1-(x5)------------------------3-(x5)-------------------------------------|

G|---------------------------------------------------------------------------|
D|---------------------------------------------------------------------------|
A|---------------3--5--10----------------------------------------------------|
E|--1-(x16)---3--------------------------------------------------------------|


Chorus 2:

G|--------12--------------12-------------9-----------------------------------|
D|--10-10----10-(x5)--9-9----9-(x5)--7-7---7-(x5)--------12------------------|
A|-------------------------------------------------10-10----10-(x5)----------|
E|---------------------------------------------------------------------------|

G|---------------------------------------------------------------------------|
D|------10-------------10----------------------------------------------------|
A|--8-8----8-(x5)--7-7----7-(x5)--10-(x16)-----------------------------------|
E|---------------------------------------------------------------------------|

G|--------12--------------12-------------9-----------------------------------|
D|--10-10----10-(x5)--9-9----9-(x5)--7-7---7-(x5)--------12------------------|
A|-------------------------------------------------10-10----10-(x5)----------|
E|---------------------------------------------------------------------------|

G|---------------------------------------------------------------------------|
D|------10-------------10----------------------------------------------------|
A|--8-8----8-(x5)--7-7----7-(x5)---------------------------------------------|
E|---------------------------------------------------------------------------|


Outro:

G|---------------------------------------------------------------------------|
D|-----------------------------------7-7-10-10-7-7-8-8-7-7-------------------|
A|---------------2-2-3-3-5-5--8-(x6)-----------------------------------------|
E|--3-(x8)--3-3--------------------------------------------------------------|

G|---------------------------------------------------------------------------|
D|-------------------5-5-3-3-2-2---------------------------------------------|
A|------2-2-3-3-5-5---------------3-3----------------------------------------|
E|--3-3----------------------------------------------------------------------|


G|---------------------------------------------------------------------------|
D|-------7-7-8-8-7-7-10-10-8-8-7-7-------------------------------------------|
A|--8-8----------------------------8-8---------------------------------------|
E|---------------------------------------------------------------------------|


G|---------------------------------------------------------------------------|
D|-------------------5-5-3-3-2-2---------------------------------------------|
A|------2-2-3-3-5-5---------------5-5----------------------------------------|
E|--3-3----------------------------------------------------------------------|

End:

G|---------------------------------------------------------------------------|
D|---------------------------------------------------------------------------|
A|---3---0-------------------------------------------------------------------|
E|-----------1---------------------------------------------------------------|



************************************

| h Hammer-on
| / Slide up
| \ Slide down


************************************
ⓘ Bass guitar tab for 'Double Crossed' by Face To Face, a punk rock band formed in 1991 from Victorville, CA

Almost there ...

Sign in to get your own page with links to favourite songs and more. You are just one click away...

Login with Facebook Login with Google