Log in

One click and you are in

Login with Facebook Login with Google

Why sign up and log in

Guitar Tabs Explorer
Face To Face bass tabs for Bent but not broken

Bent But Not Broken bass tab by Face To Face

Face To Face bass tabs for Bent but not broken

Bass tabs

Tuning: Standard (E A D G)

♫ Intro:

G|----------13-14-16-14-13----------14-13----------13------------------------|
D|-16-16-16----------------14-14-14-------14-14-14----16---------------------|
A|---------------------------------------------------------------------------|
E|---------------------------------------------------------------------------|
G|----------13-14-16-14-13----------14-13----------13------------------------|
D|-16-16-16----------------14-14-14-------14-14-14----16-16\-----------------|
A|---------------------------------------------------------------------------|
E|---------------------------------------------------------------------------|


♫ Verse 1:

G|----------13-14-16-14-13----------14-13----------13------------------------|
D|-16-16-16----------------14-14-14-------14-14-14----16---------------------|
A|---------------------------------------------------------------------------|
E|-------------------------------------------------------14\-----------------|

G|----------13-14-16-14-13----------14-13----------13------------------------|
D|-16-16-16----------------14-14-14-------14-14-14----16---------------------|
A|---------------------------------------------------------------------------|
E|-------------------------------------------------------14\-----------------|


♫ Chorus:

G|------------------------------------------------------------------------9-8-6---------|
D|------------------------------------------------------------------------------9-7-6---|
A|------------------------------------------------5-5--5-5-5----------------------------|
E|-5-5--5-5-5--0-0--0-0-0-2-2--2-2-2--2-2--2-2-2--------------5-5--5-5-5--------------2-|

G|-------------------------------------------------------------------------------------------|
D|-----------------2-2-2-2-2-2-2-2-4-4-4-4-4-4-4-4-----------------12-11-9-7-6-7-9-7-6-4-2-0-|
A|-------------------------------------------------4-4-4-4-4-4-4-4---------------------------|
E|-5-5-5-5-5-5-5-5---------------------------------------------------------------------------|

G|-------------------------------------------------------------------------------------------|
D|------------------------2-2--2-2-2--2-2--2-2-2--4-4--4-4-4--7-7-9-9------------------------|
A|--------------------------------------------------------------------7-7--7-7-7--7-7--7-7-7-|
E|-2-2--2-2-2--5-5--5-5-5--------------------------------------------------------------------|

G|-------------------------------------------------------------------------------------------|
D|------------------------2-2--2-2-2--2-2--2-2-2--4-4--4-4-4--7-7-9-9------------------------|
A|--------------------------------------------------------------------7-7--7-7-7--7-7--7-7-7-|
E|-2-2--2-2-2--5-5--5-5-5--------------------------------------------------------------------|

Bridge:

G|----------13-14-16-14-13----------14-13-----------|
D|-16-16-16----------------14-14-14-----------------|
A|--------------------------------------------------|
E|----------------------------------------2-5-0-14\-|


♫ Verse 2:

G|----------13-14-16-14-13----------14-13----------13------------------------|
D|-16-16-16----------------14-14-14-------14-14-14----16---------------------|
A|---------------------------------------------------------------------------|
E|-------------------------------------------------------14\-----------------|

G|----------13-14-16-14-13----------14-13----------13------------------------|
D|-16-16-16----------------14-14-14-------14-14-14----16---------------------|
A|---------------------------------------------------------------------------|
E|-------------------------------------------------------14\-----------------|


♫ Chorus:

G|------------------------------------------------------------------------9-8-6---------|
D|------------------------------------------------------------------------------9-7-6---|
A|------------------------------------------------5-5--5-5-5----------------------------|
E|-5-5--5-5-5--0-0--0-0-0-2-2--2-2-2--2-2--2-2-2--------------5-5--5-5-5--------------2-|

G|-------------------------------------------------------------------------------------------|
D|-----------------2-2-2-2-2-2-2-2-4-4-4-4-4-4-4-4-----------------12-11-9-7-6-7-9-7-6-4-2-0-|
A|-------------------------------------------------4-4-4-4-4-4-4-4---------------------------|
E|-5-5-5-5-5-5-5-5---------------------------------------------------------------------------|

G|-------------------------------------------------------------------------------------------|
D|------------------------2-2--2-2-2--2-2--2-2-2--4-4--4-4-4--7-7-9-9-------------6-6-6-7----|
A|--------------------------------------------------------------------7-7--7-7-7-------------|
E|-2-2--2-2-2--5-5--5-5-5--------------------------------------------------------------------|

G|-------------------------------------------------------------------------------------------|
D|------------------------2-2--2-2-2--2-2--2-2-2--4-4--4-4-4--7-7-9-9------------------------|
A|--------------------------------------------------------------------7-7--7-7-7--7-7--7-7-7-|
E|-2-2--2-2-2--5-5--5-5-5--------------------------------------------------------------------|


♫ Bridge:
         x7
G|----------------|---------|
D|-4-4-4-4-4-4-4-4|-4-4-4-4-|
A|----------------|---------|
E|----------------|---------|

G|-----------------------------------------2---2---2---2---2---2---2---2--|---------------------------|
D|-------------------------------------0-0---0---0---0---0---0---0---0---o|---------------------------|
A|-----2-2-2-2-2-2-2-2-2-2-2-2-2-2-2-2-----------------------------------o|-4-4-4-4-4-4-4-4-5-4-4-4-4-|
E|-2-5--------------------------------------------------------------------|---------------------------|


♫ Chorus:

G|-------------------------------------------------------------------------------------------|
D|------------------------2-2--2-2-2--2-2--2-2-2--4-4--4-4-4--7-7-9-9-------------6-6-6-7----|
A|--------------------------------------------------------------------7-7--7-7-7-------------|
E|-2-2--2-2-2--5-5--5-5-5--------------------------------------------------------------------|

G|-----------------------------------------------------------------------|
D|------------------------2-2--2-2-2-------------------------------------|
A|------------------------------------5-5--5-5-5--5-5--5-5-5--5-5--5-5-5-|
E|-2-2--2-2-2--5-5--5-5-5------------------------------------------------|

G|-------------------------------------------------------------------------------------------|
D|------------------------2-2--2-2-2--2-2--2-2-2--4-4--4-4-4--7-7-9-9-------------6-6-6-7----|
A|--------------------------------------------------------------------7-7--7-7-7-------------|
E|-2-2--2-2-2--5-5--5-5-5--------------------------------------------------------------------|

G|------------------------------------------------------------------------|
D|------------------------2-2--2-2-2------------12-11-9-7-6-7-9-7-6-4-2-0-|
A|-----------------------------------4-4--4-4-4---------------------------|
E|-2-2--2-2-2--5-5--5-5-5-------------------------------------------------|


♫ Outro:

G|----------13-14-16-14-13----------14-13-----------|
D|-16-16-16----------------14-14-14-----------------|
A|--------------------------------------------------|
E|----------------------------------------2-5-0-14\-|


************************************

| /  Slide up
| \  Slide down

************************************

Almost there ...

Sign in to get your own page with links to favourite songs and more. You are just one click away...

Login with Facebook Login with Google