GuitarTabsExplorer icon
GuitarTabsExplorer icon

Log in

Songbook

  • Log in to add and see bookmarks

Last visited songs

  • No songs visited yet...
Tuff Enuff by The Fabulous Thunderbirds

Tuff Enuff bass tab by The Fabulous Thunderbirds

Bass tabs

Tuning: Standard

Submitted by Texas Tom

🏷Legend:
r = rest
() = sustained note
h = hammer on
s = 16th note (appears above bar)

INTRO:

G|-----------------||-----------------|-----------------|-----------------|-----------------|
D|-----------------||-----------------|-----------------|-----------------|-----------------|
A|-r-----5--7------||-----------------|-----------5--7--|-----------------|-----------5--7--|
E|-------------7---||(7)--------------|(7)--------------|-7---------------|(7)--------------|
  1 & 2 & 3 & 4 &  1 & 2 & 3 & 4 &  1 & 2 & 3 & 4 &  1 & 2 & 3 & 4 &  1 & 2 & 3 & 4 &
PRE-VERSE (x2):

G |-----------------|-----------------|
D |-----------------|-----------------|
A |-2---------0---0-|-2---------0---0-|
E |-------0-2---2---|-------0-2---2---|
  1 & 2 & 3 & 4 &  1 & 2 & 3 & 4 &


VERSE 1 (x4):

G |-----------------|-----------------|
D |-----------------|-----------------|
A |-2---------0---0-|-2---------0---0-|
E |-------0-2---2---|-------0-2---2---|
  1 & 2 & 3 & 4 &  1 & 2 & 3 & 4 &


CHORUS 1:
         ( x3 )
       s ss                 s ss
G |--------------2---|-----------------||--------------2---|-----------------|
D |-----------2h4-0--|---------0---2---||-----------2h4-0--|---------0-------|
A |-2----------------|-2---------------||-2----------------|-2-----------0---|
E |------------------|-----------------||------------------|-----------------|
  1 & 2 & 3 & 4 &  1 & 2 & 3 & 4 &  1 & 2 & 3 & 4 &  1 & 2 & 3 & 4 &


VERSE 2 (x4):

G |-----------------|-----------------|
D |-----------------|-----------------|
A |-2---------0---0-|-2---------0---0-|
E |-------0-2---2---|-------0-2---2---|
  1 & 2 & 3 & 4 &  1 & 2 & 3 & 4 &
CHORUS 2:
         ( x3 )
       s ss                 s ss
G |--------------2---|-----------------||--------------2---|-----------------|
D |-----------2h4-0--|---------0---2---||-----------2h4-0--|---------0-------|
A |-2----------------|-2---------------||-2----------------|-2-----------0---|
E |------------------|-----------------||------------------|-----------------|
  1 & 2 & 3 & 4 &  1 & 2 & 3 & 4 &  1 & 2 & 3 & 4 &  1 & 2 & 3 & 4 &


GUITAR SOLO:

G |-----------------|-----------------|-----------------|-----------------|
D |-----------------|-----------------|-----------------|-----------------|
A |-5---------------|(5)--------5--7--|-----------------|-----------------|
E |-----------------|-----------------|-7---------------|(7)--------------|
  1 & 2 & 3 & 4 &  1 & 2 & 3 & 4 &  1 & 2 & 3 & 4 &  1 & 2 & 3 & 4 &

G |-----------------|-----------------|-----------------|-----------------|
D |-----------------|-----------------|-----------------|-----------------|
A |-5---------------|(5)------7-7-r-2-|-2---------0---0-|-2---------0---0-|
E |-----------------|-----------------|-------0-2---2---|-------0-2---2---|
  1 & 2 & 3 & 4 &  1 & 2 & 3 & 4 &  1 & 2 & 3 & 4 &  1 & 2 & 3 & 4 &


VERSE 3 (x4):

G |-----------------|-----------------|
D |-----------------|-----------------|
A |-2---------0---0-|-2---------0---0-|
E |-------0-2---2---|-------0-2---2---|
  1 & 2 & 3 & 4 &  1 & 2 & 3 & 4 &


CHORUS 3:
         ( x3 )
       s ss                 s ss
G |--------------2---|-----------------||--------------2---|-----------------|
D |-----------2h4-0--|---------0---2---||-----------2h4-0--|---------0-------|
A |-2----------------|-2---------------||-2----------------|-2-----------0---|
E |------------------|-----------------||------------------|-----------------|
  1 & 2 & 3 & 4 &  1 & 2 & 3 & 4 &  1 & 2 & 3 & 4 &  1 & 2 & 3 & 4 &


VERSE 4 (x4):

G |-----------------|-----------------|
D |-----------------|-----------------|
A |-2---------0---0-|-2---------0---0-|
E |-------0-2---2---|-------0-2---2---|
  1 & 2 & 3 & 4 &  1 & 2 & 3 & 4 &


PRE-CHORUS:
                         s ss
G |-----------------|-----------------|--------------2---|-----------------|
D |-----------------|-----------------|-----------2h4-0--|---------0---2---|
A |-5---------------|(5)--------5--7--|-2----------------|-2---------------|
E |-----------------|-----------------|------------------|-----------------|
  1 & 2 & 3 & 4 &  1 & 2 & 3 & 4 &  1 & 2 & 3 & 4 &  1 & 2 & 3 & 4 &


CHORUS 4:
         ( x3 )
       s ss                 s ss
G|--------------2---|-----------------||--------------2---|-----------------|
D|-----------2h4-0--|---------0---2---||-----------2h4-0--|-----------------|
A|-2----------------|-2---------------||-2----------------|-2-------2---2---|
E|------------------|-----------------||------------------|-----------------|
  1 & 2 & 3 & 4 &  1 & 2 & 3 & 4 &  1 & 2 & 3 & 4 &  1 & 2 & 3 & 4 &


OUTRO (Repeat to fade-out):

G |-----------------|-----------------|
D |-----------------|-----4-4-5-5-6-7-|
A |-5-----0-3-0-3-0-|-5---------------|
E |-----------------|-----------------|
  1 & 2 & 3 & 4 &  1 & 2 & 3 & 4 &

Tuff Enuff bass tab

The Fabulous Thunderbirds bass tabs for Tuff enuff "Tuff Enuff" is the title track of Texan blues rockers The Fabulous Thunderbirds 1986 album. "Tuff Enuff" was also the lead single from the album.

"Tuff Enuff" is written by singer Kim Wilson. Preston Hubbard plays bass on "Tuff Enuff".

[ Privacy | About us ]

Welcome to the guitar community

Why join and log in?
- Get songbook with favourite songs
- Get custom made front page
- Submit chords and tabs
- Submit guitar-cover videos
- Get a lot of thumbs up for your work

Songbook

Last visited songs

Site
Home
Search
Community
Submit chords

Video

No video for this page. Check out how you can submit guitar-cover videos here

Search tabs and chords

Browse by artist

A B C D E F G H I J K L M N O P Q R S T U V W X Y Z #


Menu

Search

Video

Bookmark

Login