Log in

One click and you are in

Login with Facebook Login with Google

Why sign up and log in

Guitar Tabs Explorer
Fabok chords for Aaa

Guitar chords with lyrics

Title:...AAA...
artist:Fabok
lyrics:
           Slova ..
           nebezpecnych ..
           Stroje ..
           ked ..
           Dnes ..
           sa ..
           -tam ..
           a .....
           ...jeho ..

             ...AAA...AAA...AAA...AAA...

tabulatures:PART 1
E------------------------------------------------------------------------------
B----------5(pull 1/2)- 5(pull 1/2)- 5(pull 1/2)/3/0-------------------------------------------------------------------
G------------------------------------------------------------------------------
D---2-2------------------------------------------------3-3--3-3-3-3---------------------
A---2-2------------------------------------------------3-3--3-3-3-3-------------------
E---0-0------------------------------------------------1-1--1-1-1-1---------------------
           PART 2
-----------------------------------------------------------------------------
-----------------------------------------------------------------------------
----------------3-3-4-4-4-3-------------------4-4-5-5-5-4-------------------------------
-2-2-2-2-2-2----3-3-4-4-4-3----3-3-3-3-3-3----4-4-5-5-5-4-------------------------------------------
-2-2-2-2-2-2----1-1-2-2-2-1----3-3-3-3-3-3----2-2-3-3-3-2--------------------------------------------
-0-0-0-0-0-0-------------------1-1-1-1-1-1-------------------------------------
           PART 3
------------------------------------------------------------------------------
------------------------------------------------------------------------------
-7-7-5-5----5-5-----------------------------------------------------------------------
-7-7-5-5----5-5-6-6----6-6-}---------------------------------------------------
-5-5-3-3----3-3-6-6----6-6-}------------------------------------------------------------------
----------------4-4----4-4-}-------------------------------------------------------

Play first PART 1 four times and then PART 1 together
with lyrics.Then PART 2 with "...jeho tvar...jeho...tvar...".
Then PART 3 with "...AAA...AAA...AAA...AAA...".
Sorry,the tabulatures are made basicly only.Next time I will try to write
solos or parts for second guitar too.Wait for more songs.This one is
completed,so you can use it.

If you have any questions,write:
           fabok@econ.umb.sk
                                            bye!

P.S. Send me please lyrics from song"sittin' on the dock of the bay" from
PEARL JAM if you can.It's on the live record "no fuckin' messiah-94"
this song is not writen by PEARL JAM,they are only playing it.Try to find
it,please.Bye!

Almost there ...

Sign in to get your own page with links to favourite songs and more. You are just one click away...

Login with Facebook Login with Google