Log in

One click and you are in

Login with Facebook Login with Google

Why sign up and log in

Guitar Tabs Explorer
Shelley Fabares bass tabs for Sealed with a kiss

Sealed With A Kiss bass tab by Shelley Fabares

Shelley Fabares bass tabs for Sealed with a kiss

Bass tabs

0:05

G|----------------|
D|4---------------|
A|----------------|
E|----------------|

G|----------------------------------------------------------------|
D|6---------------6-------4-------6-------------------------------|
A|----------------------------------------------------------------|
E|----------------------------------------------------------------|

0:12

G|----------------------------------------------------------------|
D|--------------------------------6---------------6---------------|
A|4---------------4---------------------------------------6-------|
E|----------------------------------------------------------------|

G|--------------------------------4-------------------------------|
D|----------------4-------4-----------------------6-------6-------|
A|4---------------------------------------------------------------|
E|----------------------------------------------------------------|

G|----------------------------------------------------------------|
D|----------------4-------4-----------------------6-------6-------|
A|4-------------------------------6-------------------------------|
E|----------------------------------------------------------------|

G|----------------------------------------------------------------|
D|--------------------------------6---------------6---6---6---6---|
A|4---------------6-----------------------------------------------|
E|----------------------------------------------------------------|

0:34

G|----------------------------------------------------------------|
D|--------------------------------6---------------6---------------|
A|4---------------4---------------------------------------6-------|
E|----------------------------------------------------------------|

G|--------------------------------4-------------------------------|
D|----------------4-------4-----------------------6-------6-------|
A|4---------------------------------------------------------------|
E|----------------------------------------------------------------|

G|----------------------------------------------------------------|
D|----------------4-------4-----------------------6-------6-------|
A|4-------------------------------6-------------------------------|
E|----------------------------------------------------------------|

G|----------------------------------------------------------------|
D|--------------------------------6---------------6-------6-------|
A|4---------------6-----------------------------------------------|
E|----------------------------------------------------------------|

0:55

G|----------------------------------------------------------------|
D|--------------------------------6-----------6---6---------------| x3
A|4-----------4---4-----------------------------------------------|
E|----------------------------------------------------------------|

G|----------------------------------------------------------------|
D|----------------------------------------------------------------|
A|--------------------------------6-------------------------------|
E|6-----------6---6-----------------------------------------------|

1:17

G|----------------------------------------------------------------|
D|--------------------------------6---------------6---------------|
A|4---------------4---------------------------------------6-------|
E|----------------------------------------------------------------|

G|--------------------------------4-------------------------------|
D|----------------4-------4-----------------------6-------6-------|
A|4---------------------------------------------------------------|
E|----------------------------------------------------------------|

G|----------------------------------------------------------------|
D|----------------4-------4-------6---------------6---------------|
A|4---------------------------------------------------------------|
E|----------------------------------------------------------------|

G|--------------------------------|
D|--------------------------------|
A|4---------------6---------------|
E|--------------------------------|

G|----------------------------------------------------------------|
D|6---------------6-------4-------6-------------------------------|
A|----------------------------------------------------------------|
E|----------------------------------------------------------------|

1:42

G|----------------------------------------------------------------|
D|--------------------------------6---------------6---------------|
A|4---------------4---------------------------------------6-------|
E|----------------------------------------------------------------|

G|--------------------------------4-------------------------------|
D|----------------4-------4-----------------------6-------6-------|
A|4---------------------------------------------------------------|
E|----------------------------------------------------------------|

G|----------------------------------------------------------------|
D|----------------4-------4-----------------------6-------6-------|
A|4-------------------------------6-------------------------------|
E|----------------------------------------------------------------|

G|----------------------------------------------------------------|
D|--------------------------------6-------------------------------|
A|4---------------6-----------------------------------------------|
E|----------------------------------------------------------------|

2:04

G|----------------------------------------------------------------|
D|--------------------------------6---------------6---------------|
A|4---------------4---------------------------------------6-------|
E|----------------------------------------------------------------|

G|--------------------------------4-------------------------------|
D|----------------4-------4-----------------------6-------6-------|
A|4---------------------------------------------------------------|
E|----------------------------------------------------------------|

G|----------------------------------------------------------------|
D|----------------4-------4-----------------------6-------6-------|
A|4-------------------------------6-------------------------------|
E|----------------------------------------------------------------|

G|----------------------------------------------------------------|
D|--------------------------------6---------------6-------6-------| x2
A|4---------------6-----------------------------------------------|
E|----------------------------------------------------------------|

G|------------------------------------|
D|--------------------------------6---|
A|4---------------6-------------------|

Almost there ...

Sign in to get your own page with links to favourite songs and more. You are just one click away...

Login with Facebook Login with Google