Log in

One click and you are in

Login with Facebook Login with Google

Why sign up and log in

Guitar Tabs Explorer
Shelley Fabares bass tabs for Lost summer love

Lost Summer Love bass tab by Shelley Fabares

Shelley Fabares bass tabs for Lost summer love

Bass tabs

Tuning: EADG

G|----------------------------------------------------------------|
D|----------------------------------------------------------------| x2
A|----------------------------------------------------------------|
E|6-------6-------6-------6-------6-------6-------6-------6-------|

0:09

G|----------------------------------------------------------------|
D|----------------------------------------------------------------| x2
A|5-------5-------5-------5-------6-------6-------8-------8-------|
E|----------------------------------------------------------------|

G|----------------------------------------------------------------|
D|----------------------------------------------------------------| x2
A|--------------------------------5-------5-------5-------5-------|
E|6-------6-------6-------6---------------------------------------|

G|----------------------------------------------------------------|
D|----------------------------------------------------------------|
A|----------------6-------6-----------------------6-------6-------|
E|6-------6-----------------------6-------6-----------------------|

G|----------------------------------------------------------------|
D|----------------------------------------------------------------|
A|------------------------------------------------8-------8-------|
E|6-------6-------6-------6-------8-------8-----------------------|

0:33

G|----------------------------------------------------------------|
D|----------------------------------------------------------------| x2
A|5-------5-------5-------5-------6-------6-------8-------8-------|
E|----------------------------------------------------------------|

G|----------------------------------------------------------------|
D|----------------------------------------------------------------| x2
A|--------------------------------5-------5-------5-------5-------|
E|6-------6-------6-------6---------------------------------------|

G|----------------------------------------------------------------|
D|----------------------------------------------------------------|
A|----------------6-------6-----------------------6-------6-------|
E|6-------6-----------------------6-------6-----------------------|

G|----------------------------------------------------------------|
D|----------------------------------------------------------------|
A|----------------------------------------------------------------|
E|6-------6-------6-------6-------6-------6-------6-------6-------|

0:57

G|----------------------------------------------------------------|
D|6-------6-------6-------6-------6-------6-------6-------6-------|
A|----------------------------------------------------------------|
E|----------------------------------------------------------------|

G|----------------------------------------------------------------|
D|8-------8-------8-------8-------8-------8-------8-------8-------|
A|----------------------------------------------------------------|
E|----------------------------------------------------------------|

G|----------------------------------------------------------------|
D|6-------6-------6-------6-------6-------6-------6-------6-------|
A|----------------------------------------------------------------|
E|----------------------------------------------------------------|

G|----------------------------------------------------------------|
D|----------------------------------------------------------------|
A|5-------5-------5-------5-----------------------8-------8-------|
E|--------------------------------8-------8-----------------------|

1:12

G|----------------------------------------------------------------|
D|----------------------------------------------------------------| x2
A|5-------5-------5-------5-------6-------6-------8-------8-------|
E|----------------------------------------------------------------|

G|----------------------------------------------------------------|
D|----------------------------------------------------------------| x2
A|--------------------------------5-------5-------5-------5-------|
E|6-------6-------6-------6---------------------------------------|

G|----------------------------------------------------------------|
D|----------------------------------------------------------------|
A|----------------6-------6-----------------------6-------6-------|
E|6-------6-----------------------6-------6-----------------------|

G|----------------------------------------------------------------|
D|----------------------------------------------------------------|
A|------------------------------------------------8-------8-------|
E|6-------6-------6-------6-------8-------8-----------------------|

1:36

G|----------------------------------------------------------------|
D|----------------------------------------------------------------| x2
A|5-------5-------5-------5-------6-------6-------8-------8-------|
E|----------------------------------------------------------------|

G|----------------------------------------------------------------|
D|----------------------------------------------------------------| x2
A|--------------------------------5-------5-------5-------5-------|
E|6-------6-------6-------6---------------------------------------|

G|----------------------------------------------------------------|
D|----------------------------------------------------------------|
A|----------------6-------6-----------------------6-------6-------|
E|6-------6-----------------------6-------6-----------6-----------|

G|----------------------------------------------------------------|
D|----------------------------------------------------------------| x5 to fadeout.
A|----------------6-------6-----------------------6-------6-------|

Almost there ...

Sign in to get your own page with links to favourite songs and more. You are just one click away...

Login with Facebook Login with Google