Log in

One click and you are in

Login with Facebook Login with Google

Why sign up and log in

Guitar Tabs Explorer
Shelley Fabares bass tabs for Im growing up

Bass tabs

Tuning: EADG

G|----------------------------------------------------------------|
D|------------3---------------------------------------------------| x2
A|--------------------------------3-----------4-----------4-------|
E|4-----------------------4---------------------------------------|

0:09

G|----------------------------------------------------------------|
D|------------------------6-------------------5-------------------|
A|------------6-------------------3-----------------------3-------|
E|4---------------------------------------------------------------|

G|----------------------------------------------------------------|
D|3-----------------------3-------------------------------6-------|
A|------------3---------------3---------------6---------------6---|
E|--------------------------------4-------------------------------|

G|----------------------------------------------------------------|
D|------------6-------------------3-----------3---------------3---|
A|4-----------------------4-------------------------------3-------|
E|----------------------------------------------------------------|

G|----------------------------------------------------------------|
D|------------3---------------3---1-------------------------------|
A|1-----------------------1---------------------------------------|
E|----------------------------------------------------------------|

0:26

G|----------------------------------------------------------------|
D|------------5-------------------3-----------------------3-------|
A|3-----------------------3-------------------3-------------------|
E|----------------------------------------------------------------|

G|----------------------------------------------------------------|
D|------------3-------------------1-----------------------1-------|
A|1-----------------------1-------------------1-------------------|
E|----------------------------------------------------------------|

G|----------------------------------------------------------------|
D|------------5-------------------3-----------------------3-------|
A|3-----------------------3-------------------3-------------------|
E|----------------------------------------------------------------|

G|----------------------------------------------------------------|
D|------------3-------------------1-------------------1---3---5---|
A|1-----------------------1---------------------------------------|
E|----------------------------------------------------------------|

0:44

G|----------------------------------------------------------------|
D|6-------------------------------------------5-------------------|
A|------------6-------------------3-----------------------3-------|
E|------------------------4---------------------------------------|

G|----------------------------------------------------------------|
D|3-----------------------3-------------------------------6-------|
A|------------3---------------3---------------6---------------6---|
E|--------------------------------4-------------------------------|

G|----------------------------------------------------------------|
D|------------6-------------------3-----------3---------------3---|
A|4-----------------------4-------------------------------3-------|
E|----------------------------------------------------------------|

G|----------------------------------------------------------------|
D|------------3---------------3---1-------------------------------|
A|1-----------------------1---------------------------------------|
E|----------------------------------------------------------------|

1:01

G|----------------------------------------------------------------|
D|------------5-------------------3-----------------------3-------|
A|3-----------------------3-------------------3-------------------|
E|----------------------------------------------------------------|

G|----------------------------------------------------------------|
D|------------6---------------------------------------------------|
A|4-----------------------4-------------------6---------------6---|
E|--------------------------------4-----------------------4-------|

G|----------------------------------------------------------------|
D|------------6-------------------------------------------6---5---|
A|4-----------------------4-------------------6-------------------|
E|--------------------------------4-------------------------------|

G|----------------------------------------------------------------|
D|3-------------------------------------------3-------------------|
A|------------3-------------------0-----------------------3-------|
E|------------------------4---------------------------------------|

G|----------------------------------------------------------------|
D|------------3-------------------1-------------------------------|
A|1-----------------------1---------------------------------------|
E|----------------------------------------------------------------|

G|----------------------------------------------------------------|
D|6-----------3-----------6---------------------------------------|
A|--------------------------------3-----------4-----------4-------|
E|----------------------------------------------------------------|

1:27

G|----------------------------------------------------------------|
D|--------------------------------------------5-------------------|
A|------------6-------------------3-----------------------3-------|
E|4-----------------------4---------------------------------------|

G|----------------------------------------------------------------|
D|3-----------------------3-------------------------------6-------|
A|------------3---------------3---------------6---------------6---|
E|--------------------------------4-------------------------------|

G|----------------------------------------------------------------|
D|------------6-------------------3---------------------------3---|
A|4-----------------------4-------------------------------3-------|
E|--------------------------------------------1-------------------|

G|----------------------------------------------------------------|
D|------------3---------------3---1-------------------------------|
A|1-----------------------1---------------------------------------|
E|----------------------------------------------------------------|

1:44

G|----------------------------------------------------------------|
D|------------5-------------------3-----------------------3-------|
A|3-----------------------3-------------------3-------------------|
E|----------------------------------------------------------------|

G|----------------------------------------------------------------|
D|------------6-------------------------------------------6-------|
A|4-----------------------4-------------------6---------------6---|
E|--------------------------------4-------------------------------|

G|----------------------------------------------------------------|
D|------------6-------------------------------------------6---5---|
A|4-----------------------4-------------------6-------------------|
E|--------------------------------4-------------------------------|

G|----------------------------------------------------------------|
D|3-------------------------------------------3-------------------|
A|------------3-------------------0-----------------------3-------|
E|------------------------4---------------------------------------|

G|----------------------------------------------------------------|
D|------------3-------------------1-------------------------------|
A|1-----------------------1---------------------------------------|
E|----------------------------------------------------------------|

G|----------------------------------------------------------------------------|
D|6-----------3-----------6-----------------------------------------------6---|
A|--------------------------------3-----------4---------------4---------------|

Almost there ...

Sign in to get your own page with links to favourite songs and more. You are just one click away...

Login with Facebook Login with Google