Log in

One click and you are in

Login with Facebook Login with Google

Why sign up and log in

Guitar Tabs Explorer
George Ezra bass tabs for Hold my girl

Bass tabs with lyrics

Tuning: Standard (E A D G)

Difficulty: Intermediate

Hold My Girl

Intro: (Guitar Only – No Bass)


Verse 1: (No Bass)


Pre-Chorus:
 Cold nights and the Sunday mornings...On your way and out of the grey...
G|----------------------------------------------------------------------|
D|---------------5---------------------8--------------------------------|
A|-6--------------------------------------------------------8-----------|
E|----------------------------------------------------------------------|


Chorus:
 I’ve got the time. I’ve got the love...Got confidence you’ll rise above
G|-----------------------------------------------------------------------|
D|-----------------------------------------------------------------------|
A|---------------------------------------8-------------------------------|
E|-6---------------------------------------------------------------------|

 Give me a minute to hold my girl...Give me a minute to hold my girl
G|-------------------------------------------------------------------|
D|-5-----------------------------------------------------------------|
A|-----------------------------------6-------------------------------|
E|-------------------------------------------------------------------|

 Crowded town...silent bed...Pick a place to rest your head
G|------------------------------------------------------------|
D|------------------------------------------------------------|
A|-----------------------------8------------------------------|
E|-6----------------------------------------------------------|

 Give me a minute to hold my girl...Give me a minute to hold my girl
G|-------------------------------------------------------------------|
D|-5-----------------------------------------------------------------|
A|-----------------------------------6-------------------------------|
E|-------------------------------------------------------------------|

Verse 2:
 I’ve been dreaming ’bout us...Working hard and saving it up
G|------------------------------------------------------------|
D|-8----------------------------5--------------------------8--|
A|----------8---------6--------------------------8------------|
E|------------------------------------------------------------|

 We’ll go and see the man in the moon...My girl we’ve got nothing to lose
G|------------------------------------------------------------------------|
D|-8-------------------------------------5----------------------------8---|
A|---------8-----------6-----------------------------------8--------------|
E|------------------------------------------------------------------------|


Pre-Chorus:
 Cold nights and the Sunday mornings...On your way and out of the grey...
G|----------------------------------------------------------------------|
D|---------------5---------------------8--------------------------------|
A|-6--------------------------------------------------------8-----------|
E|----------------------------------------------------------------------|


Chorus: (Play Chorus x2)
G|------------------------------------------------------------------------|
D|-------------------------------------------------5--5--5--5--5--5--5--5-|
A|-------------------------8--8--8--8--8--8--8--8-------------------------|
E|-6--6--6--6--6--6--6--6-------------------------------------------------|

G|------------------------|
D|------------------------|
A|-6--6--6--6--6--6--6--6-|
E|------------------------|


Bridge:
G|-----------------------------------------------------------------------|
D|-5--5--5--5--5--5--4---------------------------5--5--5--5--5--5--5-7-8-|
A|---------------------7--6--6--6--6--6--6--6--6-------------------------|
E|-----------------------------------------------------------------------|

G|------------------------|
D|------------------------|
A|-8--8--8--8--8--8--8--8-|
E|------------------------|


Chorus:
 I’ve got the time. I’ve got the love...Got confidence you’ll rise above
G|-----------------------------------------------------------------------|
D|-----------------------------------------------------------------------|
A|---------------------------------------8-------------------------------|
E|-6---------------------------------------------------------------------|

 Give me a minute to hold my girl.....Give me a minute to hold my girl
G|----------------------------------------------------------------------|
D|-5-------------------------4------------------------------------------|
A|------------------------------7---6-----------------------6--6--6--6\-|
E|----------------------------------------------------------------------|

G|------------------------------------------------------------------------|
D|------------------------3--3--3--3--3--3--3--3---5--5--5--5--5--5--5--5-|
A|-1--1--1--1--1--1--1--1-------------------------------------------------|
E|------------------------------------------------------------------------|

G|----------------------------------------------------------------------|
D|----------------------------------------------------------------------|
A|-6--6--6--6--6--6--6--6------------------------8--8--8--8--8--8--8--8-|
E|------------------------6--6--6--6--6--6--6--6------------------------|

G|----------------------------------------------------------------------|
D|-5--5--5--5--5--5--5--5-----------------------------------------------|
A|------------------------6--6--6--6--6--6--6--6------------------------|
E|-----------------------------------------------6--6--6--6--6--6--6--6-|

                        (BASS ENDS)
G|--------------------------------------------------|
D|------------------------5--5--5--5--5--5--5--5----|
A|-8--8--8--8--8--8--8--8-------------------------6-|
E|--------------------------------------------------|

Almost there ...

Sign in to get your own page with links to favourite songs and more. You are just one click away...

Login with Facebook Login with Google