Log in

One click and you are in

Login with Facebook Login with Google

Why sign up and log in

Guitar Tabs Explorer
Eyedress bass tabs for Can i see you tonight

Bass tabs

Intro: 0:00 - 0:29(Keys
Drums & Guitar Only)

G|----------------------------------------------------------------------------|
D|----------------------------------------------------------------------------|
A|----------------------------------------------------------------------------|
E|----------------------------------------------------------------------------|


Chorus: 0:29 - 0:48

G|----------------------------------------------------------------------------|
D|--------------------------7--7--7-7-7--7--7--7-7-7--3--3--3-3-3--3--3--3-3-3|
A|5--5--5-5-5--5--5--5-5-5----------------------------------------------------|
E|----------------------------------------------------------------------------|

G|----------------------------------------------------------------------------|
D|5--5--5-5-5--5--7--7-7-7\---------------------------------------------------|
A|----------------------------------------------------------------------------|
E|----------------------------------------------------------------------------|

G|------------------------------------------9--9-9-9------------------5--5-5-5|
D|--------------------------7--7--7-7-7--7------------3--3--3-3-3--3----------|
A|5--5--5-5-5--5--5--5-5-5----------------------------------------------------|
G|----------------------------------------------------------------------------|

G|----------------------------------------------------------------------------|
D|5--5--5-5-5--5--7--7-7-7\---------------------------------------------------|
A|----------------------------------------------------------------------------|
E|----------------------------------------------------------------------------|


Verse 1: 0:48 - 1:07

G|----------------------------------------------------------------------------|
D|--------------------------7--7--7-7-7--7--7--7-7-7--3--3--3-3-3--3--3--3-3-3|
A|5--5--5-5-5--5--5--5-5-5----------------------------------------------------|
E|----------------------------------------------------------------------------|

G|----------------------------------------------------------------------------|
D|5--5--5-5-5--5--7--7-7-7\---------------------------------------------------|
A|----------------------------------------------------------------------------|
E|----------------------------------------------------------------------------|

G|------------------------------------------9--9-9-9------------------5--5-5-5|
D|--------------------------7--7--7-7-7--7------------3--3--3-3-3--3----------|
A|5--5--5-5-5--5--5--5-5-5----------------------------------------------------|
G|----------------------------------------------------------------------------|

G|----------------------------------------------------------------------------|
D|5--5--5-5-5-----------------------------------------------------------------|
A|----------------------------------------------------------------------------|
E|----------------------------------------------------------------------------|


Chorus: 1:07 - 1:27

G|----------------------------------------------------------------------------|
D|--------------------------7--7--7-7-7--7--7--7-7-7--3--3--3-3-3--3--3--3-3-3|
A|5--5--5-5-5--5--5--5-5-5----------------------------------------------------|
E|----------------------------------------------------------------------------|

G|----------------------------------------------------------------------------|
D|5--5--5-5-5--5--7--7-7-7\---------------------------------------------------|
A|----------------------------------------------------------------------------|
E|----------------------------------------------------------------------------|

G|------------------------------------------9--9-9-9------------------5--5-5-5|
D|--------------------------7--7--7-7-7--7------------3--3--3-3-3--3----------|
A|5--5--5-5-5--5--5--5-5-5----------------------------------------------------|
G|----------------------------------------------------------------------------|

G|----------------------------------------------------------------------------|
D|5--5--5-5-5-----------------------------------------------------------------|
A|----------------------------------------------------------------------------|
E|----------------------------------------------------------------------------|


Repeat Intro: 1:27 - 1:46 (With bass this time)

G|------------------------------------------9~~~~----------------------------|
D|-------7~~~~--3~~~~--5~~~~---------7~~~~-----------------------------------|
A|5~~~~-----------------------5~~~~------------------------------------------|
E|---------------------------------------------------------------------------|


Outro Chorus: 1:46 - 2:15

G|----------------------------------------------------------------------------|
D|--------------------------7--7--7-7-7--7--7--7-7-7--3--3--3-3-3--3--3--3-3-3|
A|5--5--5-5-5--5--5--5-5-5----------------------------------------------------|
E|----------------------------------------------------------------------------|

G|----------------------------------------------------------------------------|
D|5--5--5-5-5--5--7--7-7-7\---------------------------------------------------|
A|----------------------------------------------------------------------------|
E|----------------------------------------------------------------------------|

G|------------------------------------------9--9-9-9------------------5--5-5-5|
D|--------------------------7--7--7-7-7--7------------3--3--3-3-3--3----------|
A|5--5--5-5-5--5--5--5-5-5----------------------------------------------------|
G|----------------------------------------------------------------------------|

G|----------------------------------------------------------------------------|
D|5--5--5-5-5-----------------------------------------------------------------|
A|----------------------------------------------------------------------------|
E|----------------------------------------------------------------------------|

G|------------------------------------------9--9-9-9------------------5--5-5-5|
D|--------------------------7--7--7-7-7--7------------3--3--3-3-3--3----------|
A|5--5--5-5-5--5--5--5-5-5----------------------------------------------------|
G|----------------------------------------------------------------------------|

G|----------------------------------------------------------------------------|
D|5--5--5-5-5--5--5--5-5-5----------------------------------------------------|
A|----------------------------------------------------------------------------|
E|----------------------------------------------------------------------------|


Outro: 2:15 - 2:37

G|--------------9~~~~--12-10-9-10-9-5~~~-12-10~~~~----------------------------|
D|-------7~~~~----------------------------------------------------------------|
A|5~~~~-----------------------------------------------------------------------|
E|----------------------------------------------------------------------------|


| \ Slide down
| ~ Vibrato

Almost there ...

Sign in to get your own page with links to favourite songs and more. You are just one click away...

Login with Facebook Login with Google